Misfits - Earth Ad Chords & Tabs

 

Earth Ad Chords & Tabs

Misfits Chords & Tabs

Version: 1 Type: Tab 0 ratings
1 star 2 stars 3 stars 4 stars 5 stars
comments

Earth Ad Tab

Earth AD

Transcribed by: Look_Upon_Me@yahoo.com

E  :----------------|----------------|----------------|----------------|
B  :----------------|----------------|----------------|----------------|
G  :5-------4-------|7-------6-------|5-------4-------|7-------6-------|
D  :5-------4-------|7-------6-------|5-------4-------|7-------6-------|
A  :3-------2-------|5-------4-------|3-------2-------|5-------4-------|
E  :----------------|----------------|----------------|----------------|

E  :----------------|----------------|----------------|----------------|
B  :----------------|----------------|----------------|----------------|
G  :5-5-5-5-5-5-5-5-|4-4-4-4-7-7-7-7-|5-5-5-5-5-5-5-5-|4-4-4-4-7-7-7-7-|
D  :5-5-5-5-5-5-5-5-|4-4-4-4-7-7-7-7-|5-5-5-5-5-5-5-5-|4-4-4-4-7-7-7-7-|
A  :3-3-3-3-3-3-3-3-|2-2-2-2-5-5-5-5-|3-3-3-3-3-3-3-3-|2-2-2-2-5-5-5-5-|
E  :----------------|----------------|----------------|----------------|

E  :----------------|----------------|----------------|----------------|
B  :----------------|----------------|----------------|----------------|
G  :5-5-5-5-5-5-5-5-|4-4-4-4-7-7-7-7-|5-5-5-5-5-5-5-5-|4-4-4-4-7-7-7-7-|
D  :5-5-5-5-5-5-5-5-|4-4-4-4-7-7-7-7-|5-5-5-5-5-5-5-5-|4-4-4-4-7-7-7-7-|
A  :3-3-3-3-3-3-3-3-|2-2-2-2-5-5-5-5-|3-3-3-3-3-3-3-3-|2-2-2-2-5-5-5-5-|
E  :----------------|----------------|----------------|----------------|

E  :----------------|--------------------|----------------|
B  :----------------|--------------------|----------------|
G  :9-9-9-9-9-9-9-9-|7-7-7-7-10-10-10-10-|9-9-9-9-9-9-9-9-|
D  :9-9-9-9-9-9-9-9-|7-7-7-7-10-10-10-10-|9-9-9-9-9-9-9-9-|
A  :7-7-7-7-7-7-7-7-|5-5-5-5--8--8--8--8-|7-7-7-7-7-7-7-7-|
E  :----------------|--------------------|----------------|

E  :--------------------|----------------|----------------|
B  :--------------------|----------------|----------------|
G  :7-7-7-7-10-10-10-10-|5-5-5-5-5-5-5-5-|4-4-4-4-7-7-7-7-|
D  :7-7-7-7-10-10-10-10-|5-5-5-5-5-5-5-5-|4-4-4-4-7-7-7-7-|
A  :5-5-5-5--8--8--8--8-|3-3-3-3-3-3-3-3-|2-2-2-2-5-5-5-5-|
E  :--------------------|----------------|----------------|

E  :----------------|----------------|----------------|
B  :----------------|----------------|----------------|
G  :5-5-5-5-5-5-5-5-|4-4-4-4-7-7-7-7-|9-9-9-9-9-9-9-9-|
D  :5-5-5-5-5-5-5-5-|4-4-4-4-7-7-7-7-|9-9-9-9-9-9-9-9-|
A  :3-3-3-3-3-3-3-3-|2-2-2-2-5-5-5-5-|7-7-7-7-7-7-7-7-|
E  :----------------|----------------|----------------|

E  :--------------------|----------------|--------------------|
B  :--------------------|----------------|--------------------|
G  :7-7-7-7-10-10-10-10-|9-9-9-9-9-9-9-9-|7-7-7-7-10-10-10-10-|
D  :7-7-7-7-10-10-10-10-|9-9-9-9-9-9-9-9-|7-7-7-7-10-10-10-10-|
A  :5-5-5-5--8--8--8--8-|7-7-7-7-7-7-7-7-|5-5-5-5--8--8--8--8-|
E  :--------------------|----------------|--------------------|

E  :----------------|----------------|----------------|
B  :----------------|----------------|----------------|
G  :4-4-4-4-4-4-4-4-|5-5-5-5-5-5-5-5-|4-4-4-4-4-4-4-4-|
D  :4-4-4-4-4-4-4-4-|5-5-5-5-5-5-5-5-|4-4-4-4-4-4-4-4-|
A  :2-2-2-2-2-2-2-2-|3-3-3-3-3-3-3-3-|2-2-2-2-2-2-2-2-|
E  :----------------|----------------|----------------|

E  :--------------------|----------------|----------------|
B  :--------------------|----------------|----------------|
G  :--------------------|4-4-4-4-4-4-4-4-|5-5-5-5-5-5-5-5-|
D  :3---(3)-3---(3)-3-3-|4-4-4-4-4-4-4-4-|5-5-5-5-5-5-5-5-|
A  :3---(3)-3---(3)-3-3-|2-2-2-2-2-2-2-2-|3-3-3-3-3-3-3-3-|
E  :1---(1)-1---(1)-1-1-|----------------|----------------|

E  :----------------|--------------------|--------------------|
B  :----------------|--------------------|--------------------|
G  :4-4-4-4-4-4-4-4-|--------------------|--------------------|
D  :4-4-4-4-4-4-4-4-|3---(3)-3---(3)-3-3-|3---(3)-3---(3)-3-3-|
A  :2-2-2-2-2-2-2-2-|3---(3)-3---(3)-3-3-|3---(3)-3---(3)-3-3-|
E  :----------------|1---(1)-1---(1)-1-1-|1---(1)-1---(1)-1-1-|

E  :--------------------|----------------|----------------|
B  :--------------------|----------------|----------------|
G  :--------------------|----------------|----------------|
D  :3---(3)-3---(3)-3-3-|3---------------|----------------|
A  :3---(3)-3---(3)-3-3-|3---------------|----------------|
E  :1---(1)-1---(1)-1-1-|1---------------|----------------|
[ Tab from: http://www.guitartabs.cc/tabs/m/misfits/earth_ad_tab.html ]
E  :----------------|----------------|----------------|----------------|
B  :----------------|----------------|----------------|----------------|
G  :----------------|5-5-5-5-5-5-5-5-|4-4-4-4-7-7-7-7-|5-5-5-5-5-5-5-5-|
D  :----------------|5-5-5-5-5-5-5-5-|4-4-4-4-7-7-7-7-|5-5-5-5-5-5-5-5-|
A  :----------------|3-3-3-3-3-3-3-3-|2-2-2-2-5-5-5-5-|3-3-3-3-3-3-3-3-|
E  :----------------|----------------|----------------|----------------|

E  :----------------|----------------|----------------|----------------|
B  :----------------|----------------|----------------|----------------|
G  :4-4-4-4-7-7-7-7-|5-5-5-5-5-5-5-5-|4-4-4-4-7-7-7-7-|5-5-5-5-5-5-5-5-|
D  :4-4-4-4-7-7-7-7-|5-5-5-5-5-5-5-5-|4-4-4-4-7-7-7-7-|5-5-5-5-5-5-5-5-|
A  :2-2-2-2-5-5-5-5-|3-3-3-3-3-3-3-3-|2-2-2-2-5-5-5-5-|3-3-3-3-3-3-3-3-|
E  :----------------|----------------|----------------|----------------|

E  :----------------|----------------|--------------------|
B  :----------------|----------------|--------------------|
G  :4-4-4-4-7-7-7-7-|9-9-9-9-9-9-9-9-|7-7-7-7-10-10-10-10-|
D  :4-4-4-4-7-7-7-7-|9-9-9-9-9-9-9-9-|7-7-7-7-10-10-10-10-|
A  :2-2-2-2-5-5-5-5-|7-7-7-7-7-7-7-7-|5-5-5-5--8--8--8--8-|
E  :----------------|----------------|--------------------|

E  :----------------|--------------------|----------------|
B  :----------------|--------------------|----------------|
G  :9-9-9-9-9-9-9-9-|7-7-7-7-10-10-10-10-|5-5-5-5-5-5-5-5-|
D  :9-9-9-9-9-9-9-9-|7-7-7-7-10-10-10-10-|5-5-5-5-5-5-5-5-|
A  :7-7-7-7-7-7-7-7-|5-5-5-5--8--8--8--8-|3-3-3-3-3-3-3-3-|
E  :----------------|--------------------|----------------|

E  :----------------|----------------|----------------|----------------|
B  :----------------|----------------|----------------|----------------|
G  :4-4-4-4-7-7-7-7-|5-5-5-5-5-5-5-5-|4-4-4-4-7-7-7-7-|9-9-9-9-9-9-9-9-|
D  :4-4-4-4-7-7-7-7-|5-5-5-5-5-5-5-5-|4-4-4-4-7-7-7-7-|9-9-9-9-9-9-9-9-|
A  :2-2-2-2-5-5-5-5-|3-3-3-3-3-3-3-3-|2-2-2-2-5-5-5-5-|7-7-7-7-7-7-7-7-|
E  :----------------|----------------|----------------|----------------|

E  :--------------------|----------------|--------------------|
B  :--------------------|----------------|--------------------|
G  :7-7-7-7-10-10-10-10-|9-9-9-9-9-9-9-9-|7-7-7-7-10-10-10-10-|
D  :7-7-7-7-10-10-10-10-|9-9-9-9-9-9-9-9-|7-7-7-7-10-10-10-10-|
A  :5-5-5-5--8--8--8--8-|7-7-7-7-7-7-7-7-|5-5-5-5--8--8--8--8-|
E  :--------------------|----------------|--------------------|

E  :----------------|----------------|----------------|
B  :----------------|----------------|----------------|
G  :4-4-4-4-4-4-4-4-|5-5-5-5-5-5-5-5-|4-4-4-4-4-4-4-4-|
D  :4-4-4-4-4-4-4-4-|5-5-5-5-5-5-5-5-|4-4-4-4-4-4-4-4-|
A  :2-2-2-2-2-2-2-2-|3-3-3-3-3-3-3-3-|2-2-2-2-2-2-2-2-|
E  :----------------|----------------|----------------|

E  :--------------------|----------------|----------------|
B  :--------------------|----------------|----------------|
G  :--------------------|4-4-4-4-4-4-4-4-|5-5-5-5-5-5-5-5-|
D  :3---(3)-3---(3)-3-3-|4-4-4-4-4-4-4-4-|5-5-5-5-5-5-5-5-|
A  :3---(3)-3---(3)-3-3-|2-2-2-2-2-2-2-2-|3-3-3-3-3-3-3-3-|
E  :1---(1)-1---(1)-1-1-|----------------|----------------|

E  :----------------|--------------------|--------------------|
B  :----------------|--------------------|--------------------|
G  :4-4-4-4-4-4-4-4-|--------------------|--------------------|
D  :4-4-4-4-4-4-4-4-|3---(3)-3---(3)-3-3-|3---(3)-3---(3)-3-3-|
A  :2-2-2-2-2-2-2-2-|3---(3)-3---(3)-3-3-|3---(3)-3---(3)-3-3-|
E  :----------------|1---(1)-1---(1)-1-1-|1---(1)-1---(1)-1-1-|

E  :--------------------|----------------|----------------|
B  :--------------------|----------------|----------------|
G  :--------------------|4-4-4-4-4-4-4-4-|5-5-5-5-5-5-5-5-|
D  :3---(3)-3---(3)-3-3-|4-4-4-4-4-4-4-4-|5-5-5-5-5-5-5-5-|
A  :3---(3)-3---(3)-3-3-|2-2-2-2-2-2-2-2-|3-3-3-3-3-3-3-3-|
E  :1---(1)-1---(1)-1-1-|----------------|----------------|

E  :----------------|--------------------|----------------|
B  :----------------|--------------------|----------------|
G  :4-4-4-4-4-4-4-4-|--------------------|4-4-4-4-4-4-4-4-|
D  :4-4-4-4-4-4-4-4-|3---(3)-3---(3)-3-3-|4-4-4-4-4-4-4-4-|
A  :2-2-2-2-2-2-2-2-|3---(3)-3---(3)-3-3-|2-2-2-2-2-2-2-2-|
E  :----------------|1---(1)-1---(1)-1-1-|----------------|

E  :----------------|----------------|--------------------|
B  :----------------|----------------|--------------------|
G  :5-5-5-5-5-5-5-5-|4-4-4-4-4-4-4-4-|--------------------|
D  :5-5-5-5-5-5-5-5-|4-4-4-4-4-4-4-4-|3---(3)-3---(3)-3-3-|
A  :3-3-3-3-3-3-3-3-|2-2-2-2-2-2-2-2-|3---(3)-3---(3)-3-3-|
E  :----------------|----------------|1---(1)-1---(1)-1-1-|

E  :--------------------|--------------------|----------------|
B  :--------------------|--------------------|----------------|
G  :--------------------|--------------------|----------------|
D  :3---(3)-3---(3)-3-3-|3---(3)-3---(3)-3-3-|3---------------|
A  :3---(3)-3---(3)-3-3-|3---(3)-3---(3)-3-3-|3---------------|
E  :1---(1)-1---(1)-1-1-|1---(1)-1---(1)-1-1-|1---------------|
Comments