Misfits - Dust To Dust Chords & Tabs

 

Dust To Dust Chords & Tabs

Misfits Chords & Tabs

Version: 1 Type: Bass Tab 0 ratings
1 star 2 stars 3 stars 4 stars 5 stars
comments

Dust To Dust Bass Tab

Dust To Dust - Misfits
tabbed by: ryan b

Play in flat...

Riff A: (11 times)
Ab--2-22-----------------
Eb-------0-3-33-5-3-5-5--

Riff B: (once)
Ab--2-22--------
Eb--------0--3--
[ Tab from: http://www.guitartabs.cc/tabs/m/misfits/dust_to_dust_btab.html ]
Riff C: (4 times)
Ab--55555555-55555555--------------------
Eb--------------------33333333-00000000--

Riff A: (11 times)
Riff B: (once)
Riff C: (4 times)
Riff A: (3 times)
Riff B: (once)

Riff D: (once)
Ab--2--------3--------4--------5--
Eb--------------------------------

Riff C: (4 times)
Riff A: (3 times)
Riff B: (once)


Comments