Misfits - Dr Phibes Rises Again Chords & Tabs

 

Dr Phibes Rises Again Chords & Tabs

Misfits Chords & Tabs

Version: 1 Type: Bass Tab 0 ratings
1 star 2 stars 3 stars 4 stars 5 stars
comments

Dr Phibes Rises Again Bass Tab

   
SONG: Dr. Phibes Rises Again
ARTIST: Misfits
ALBUM: Cuts from the Crypt
BASSIST: Jerry Only
Tabbed by: jacob

      INTRO
G ------------------------------------------------------------------|
D ------------------------------------------------------------------|
A -----2~-------3~-------2---------3-----5--3---0--2~---3--2--------|
E 0~~-------0~--~---0~~--------0~~~----------------------------3--5-|

G ------------------------------------------------------------------|
D ------------------------------------------------------------------|
A -----2~-------3~-------2---------3-----5--3---0--2~---3--2--------|
E 0~~-------0~--~---0~~--------0~~~----------------------------3--5-|

G ----------|
D ----------|
A ----------|
E 3~--2~--0-|

     PRE-VERSE *play along w/ song.
G -------------------------------------------------|
D -------------------------------------------------|
A ----------------------7------------------------7-|
E 8~---10------7-7-8-10------8----10----7-7-8-10---|

G -------------------------------------------------|
D -------------------------------------------------|
A ----------------------7--------------------------|
E 8~---10------7-7-8-10------8----10----7-7-8-10---|

     VERSE
G ----------------------------------------------------|
D ----------------------------------------------------|
A ----------------------------------------------5-----|
E 8-7-5-777777-8-7-5-777777-8-5-7-777777-8-7-5-----5--|

G --------------------------------------------------------|
D --------------------------------------------------------|
A ---------------------------------------5----------------|
E 777777-8-7-5-777777-8-7-5-777777-8-7-5----5--8--7--55-7-|

  CHORUS repeat 2x
  *(part with the little solo guitar thing, play along with drum cymbals)
G -----------------------------------|
D -----------------------------------|
A -----------------------------------|
E ------7-7------7-7------8--7--55-7-|

PRE-VERSE
G -------------------------------------------------|
D -------------------------------------------------|
A ----------------------7--------------------------|
E 8~---10------7-7-8-10------8----10----7-7-8-10---|
     VERSE 2
G ----------------------------------------------------|
D ----------------------------------------------------|
A ----------------------------------------------5-----|
E 8-7-5-777777-8-7-5-777777-8-5-7-777777-8-7-5-----5--|

G ---------------------------------------------|
D ---------------------------------------------|
A ----------------------------------------5----|
E 777777-8-7-5-777777-8-5-7-777777-8-7-5----5--|

G --------------------------------------------------------|
D --------------------------------------------------------|
A ----------------------------------------5---------------|
E 777777-8-7-5-777777-8-7-5-777777-8-7-5----5--8--7--55-7-|


REPEAT CHORUS 3X
G -----------------------------------|
D -----------------------------------|
A -----------------------------------|
E ------7-7------7-7------8--7--55-7-|
[ Tab from: http://www.guitartabs.cc/tabs/m/misfits/dr_phibes_rises_again_btab.html ]
     PRE-VERSE
G -------------------------------------------------|
D -------------------------------------------------|
A ----------------------7------------------------7-|
E 8~---10------7-7-8-10------8----10----7-7-8-10---|

G -----------------------------------------------------------|
D -----------------------------------------------------------|
A ----------------------7------------------------------------|
E 8~---10------7-7-8-10------8----10----7-7-8-10--11~-10--8~-|

  CHORUS 2  repeat 4x
G -----------------------------------------------|
D -----------------------------------------------|
A 55555555-3-5-6-5-3-55555555-3-5-6-5-3-55555555-|
E -----------------------------------------------|

G -----------------------------------------------------------| *At the end of the 4th measure, don't
D -----------------------------------------------------------|  play the slide, just ended with these
A 3-5-6-5-3-4~--------------  last three chords: E -3--2--0--|
E -------------5~-7~-3-3/\-----------------------------------|
Play INTRO again
G ------------------------------------------------------------------|
D ------------------------------------------------------------------|
A -----2~-------3~-------2---------3-----5--3---0--2~---3--2--------|
E 0~~-------0~--~---0~~--------0~~~----------------------------3--5-|

G ------------------------------------------------------------------|
D ------------------------------------------------------------------|
A -----2~-------3~-------2---------3-----5--3---0--2~---3--2--------|
E 0~~-------0~--~---0~~--------0~~~----------------------------3--5-|

G ----------|
D ----------|
A ----------|
E 3~--2~--0-|
    Play Pre-Verse again
G ----------------------------------------------------------------------|
D ----------------------------------------------------------------------|
A ---------------------7----------------------7-------------------------|
E 8~---10----7-7-8-10-----8----10----7-7-8-10------8~---10----7-7-8-10--|

G ----------------------------|
D ----------------------------|
A 7---------------------------|
E -----8~---10------7-7-8-10--|

G --------------------------------------------------------------------------|
D --------------------------------------------------------------------------|
A 7---------------------------7~-----------------------7--------------------|
E -----8~---10------7-7-8-10------8----10----7-7-8-10------8----10-7-7-8-10-|

  REPEAT CHORUS
G -------------------------------------------|
D -------------------------------------------|
A -------------------------------------------|
E 8-7-5-7-------7-7------7-7------8--7--55-7-|

  REPEAT this riff 3X
G -----------------------------------|
D -----------------------------------|
A -----------------------------------|
E --7-7------7-7------8--7--55-7-----|

 ENDING
G -------------------------------------------------------------------------|
D -------------------------------------------------------------------------|
A --------555555-------------------------555555----------------------------|
E 777777---------555555-888888-/77777777--------555555-888888-7~-----------|


G ----------------|
D ----------------|
A --7--57--57/----|
E ----------------|
Comments