Misfits - Dont Open Til Doomsday Chords & Tabs

 

Dont Open Til Doomsday Chords & Tabs

Misfits Chords & Tabs

Version: 1 Type: Tab 0 ratings
1 star 2 stars 3 stars 4 stars 5 stars
comments

Dont Open Til Doomsday Tab

   
Song:Don't Open Til Doomsday
Artist:The MisFiTs
Tabbed By:Michael
E-Mail:guitarzan413@netscape.net

Hmm...

Tune A Half-Step Down(E Flat)
[eb-Bb-Gb-Db-Ab-eb]

Intro:
eb|---------------------------|
Bb|---------------------------|
Gb|---------------------------|
Db|---------------------------|
Ab|7*~-----4*~-----7*~-----6*~|
Eb|---------------------------|
[ Tab from: http://www.guitartabs.cc/tabs/m/misfits/dont_open_til_doomsday_tab.html ]
eb|-------------------------------------------------------------------|
Bb|-------------------------------------------------------------------|
Gb|9(x16)-4(x16)-6(x16)-----------------------------2(x8)-4(x4)--6(x4)|
Db|9------4------6------6(x16)/7(x16)-2(x16)-5(x16)-2-----4------6----|
Ab|7------2------4------6-----/7------2------5------0-----2------4----|
Eb|---------------------4-----/5------0------3------------------------|

Verses:
eb|-------------------------------------------------------------------|
Bb|-------------------------------------------------------------------|
Gb|9(x16)-4(x16)-6(x16)-----------------------------2(x8)-4(x4)--6(x4)|
Db|9------4------6------6(x16)/7(x16)-2(x16)-5(x16)-2-----4------6----|
Ab|7------2------4------6-----/7------2------5------0-----2------4----|
Eb|---------------------4-----/5------0------3------------------------|

Chorus:
eb|-----------------------------------|
Bb|-----------------------------------|
Gb|99999999-66666666-22222222-44444444|
Db|99999999-66666666-22222222-44444444|
Ab|77777777-44444444-00000000-22222222|
Eb|-----------------------------------|

Enjoy.
Comments