Misfits - Dont Open Til Doomsday Chords & Tabs

 

Dont Open Til Doomsday Chords & Tabs

Misfits Chords & Tabs

Version: 1 Type: Bass Tab 0 ratings
1 star 2 stars 3 stars 4 stars 5 stars
comments

Dont Open Til Doomsday Bass Tab

Don't Open 'Til Doomsday - Misfits
tabbed by: ryan b

Riff A: (once)
Ab-----4--0--2--
Eb--0-----------

Riff B: (twice)
Ab------------22222222--44444444----------------
Eb--00000000----------------------4444-4--2-2/4-
[ Tab from: http://www.guitartabs.cc/tabs/m/misfits/dont_open_til_doomsday_btab.html ]
Riff B (continued)
Ab--00000000----------------------0000-2222--
Eb-----------0000-0-0h1--33333333------------

Riff C: (3 times)
Ab--------4444--0000--2222--
Eb--0000--------------------

Riff D: (once)
Ab--00000000--22222222--
Eb----------------------

Riff C: (3 times)
Riff D: (once)
Riff B: (once
Riff C: (3 times)
Riff D: (once)
Riff C: (3 times)
Riff D: (twice) - Ending on E (open E string)


Comments