Misfits - Dig Up Her Bones Chords & Tabs

 

Dig Up Her Bones Chords & Tabs

Misfits Chords & Tabs

Version: 2 Type: Tab 1 rating
1 star 2 stars 3 stars 4 stars 5 stars
comments

Dig Up Her Bones Tab

   
##################################################################################
# This file is the author's own work and represents their interpretation of the  #
# song. You may only use this file for private study, scholarship, or research.  #
##################################################################################

Artist = The Misfits
Song = Dig Up Her Bones
By = Chuck_Kelly87


Tuning: Eb Bb Gb Db Ab Eb

Intro/Verse

howl....
         (palm mute first three chords 5x)
E --------------------------------------------------
B --------------------------------------------------
G ----4-----------4--4--4--4--4--4------------------ x2
D ----4---5---7---4--4--4--4--4--4------------------
A ----2---5---7---2--0--2--0--2--0------------------
E --------3---5-------------------------------------

E --------------------------------------------------
B --------------------------------------------------
G ----4-------7-------------4-----------------------
D ----4---5---7---7---------4---5----7--------------
A ----2---5---5---7---------2---5----7--------------
E --------3-------5-------------3----5--------------
[ Tab from: http://www.guitartabs.cc/tabs/m/misfits/dig_up_her_bones_tab_ver_2.html ]
Verse (same as intro)
E --------------------------------------------------
B --------------------------------------------------
G ----4-----------4--4--4--4--4--4------------------ x4
D ----4---5---7---4--4--4--4--4--4------------------
A ----2---5---7---2--0--2--0--2--0------------------
E --------3---5-------------------------------------

Bridge

E --------------------------------------------------
B --------------------------------------------------
G -----------------------------4-----4---4--4------- x2
D ----5----------7-------------4-----4---4--4-------
A ----5----------7-------------2-----2---2--2-------
E ----3----------5----------------------------------
       And death climbs up the steps one by one
       To give you the rose....

Chorus

E ------------------------------------------------------
B ------------------------------------------------------
G --4---------------7----------4----------------7------- x2
D --4--------5------7----7-----4------5---------7-----7-
A --2--------5------5----7-----2------5---------5-----7-
E -----------3-----------5------------3---------------5-
    Point me to the sky above. I cant get there on my own

Verse

Bridge

Chorus x4


HAPPY GUITARING KIDDIES!
Comments