Misfits - Die Monster Die Chords & Tabs

 

Die Monster Die Chords & Tabs

Misfits Chords & Tabs

Version: 1 Type: Bass Tab 0 ratings
1 star 2 stars 3 stars 4 stars 5 stars
comments

Die Monster Die Bass Tab

 Die Monster, Die
 Misfits
'Famous Monsters'

 Not sure if there is bass during the intro but if there is it's the same as the
verse. During the verse you can play the notes more times then tabbed to give the
bass more presence, changing note when the guitar does.

Intro / Verse (first things first):
G|----------------X2---------------------|
D|-----4-4-----5-5-----4-----------------|
A|-5-5-----2-2-----5-5---0-0-0-0-0-0-0-0-|
E|---------------------------------------|
[ Tab from: http://www.guitartabs.cc/tabs/m/misfits/die_monster_die_btab.html ]
Chorus (die, die monster, die):
G|-------X3--------|---------------------------|
D|-----------------|---------------------------|
A|-------------5-5-|---------------------------|
E|-5-5-5-5-5-7-----|-5-5-5-5-5-0-0-0-0-0-0-0-0-|

Verse

Fill (theres a place where):
G|-------------X3--------------|--------------------------------|
D|-----------------------------|--------------------------------|
A|-------------------------5-5-|--------------------------------|
E|-5-5-5-5-5-5-5-5-5-5-5-5-----|5-5-5-5-5-5-5-5-0-0-0-0-0-0-0-0-|

Verse

Chorus (repeat till end)
Comments