Misfits - Die Die My Darling Chords & Tabs

 

Die Die My Darling Chords & Tabs

Misfits Chords & Tabs

Version: 1 Type: Bass Tab 0 ratings
1 star 2 stars 3 stars 4 stars 5 stars
comments

Die Die My Darling Bass Tab

	Misfits- Die Die My Darling
	Album: Earth A.D.(1983)
	Tabbed by Fiend4Life
	Email: schizophrenic666@hotmail.com

		Riff 1
	G----------------------------
	D----------------------------
	A-2-2-2-2-2-2-2-2---------
	E----------------------3-2---     (2 times)


		Riff 2
	G---------------------------
	D---------------------------
	A-2-2-2-2-2-2-2-2---------
	E--------------------3-2-0--  (Once)

[ Tab from: http://www.guitartabs.cc/tabs/m/misfits/die_die_my_darling_btab.html ]
		Riff 3
	G------------------------------------------------
	D-------------------------------------------------
	A-2-2-2-2-2-2-2-2------------------------------
	E--------------------3-3-3-3-2-2-2-2-2-2-2-2-2- (Once)


		Riff 4
	G----------------------------------------------
	D----------------------------------------------
	A-2-2-2-2-2-2-2-2-----------5-5-4-4----------
	E--------------------3-3-3-3------------------ (6 times)


		Riff 1 (Once)
		Riff 2 (Once)

		Riff 5
	G-----------------------------------------------
	D----------------------------------------------
	A-2-2-2-2-2-2-2-2----------------------------
	E---------------------3-3-3-3-2(16x)----------  (Once)  What i mean is play 
2 on the E string 16 times.


		Riff 4 (6 times)
		Riff 1 (Once)
		Riff 2 (Once)
		Riff 3 (Once)
		Riff 1 Several times

Comments