Misfits - Descending Angel Chords & Tabs

 

Descending Angel Chords & Tabs

Misfits Chords & Tabs

Version: 4 Type: Tab 0 ratings
1 star 2 stars 3 stars 4 stars 5 stars
comments

Descending Angel Tab

   
Tuning: Standard

Intro 0:00
e|---------------------------------------------------------------------|
B|---------------------------------------------------------------------|
G|---------------------------------------------------------------------|
D|---------------------------------------------------------------------|
A|-8---8-8-8-8-8---11--11-11-11-11-11--6---6-6-6-6-6\3/6-6-6-6-6-6-6-6-|
E|-6---6-6-6-6-6---9---9--9--9--9--9---4---4-4-4-4-4\1/4-4-4-4-4-4-4-4-|
                                                       x x x x x x x x

e|---------------------------------------------------------------------|
B|---------------------------------------------------------------------|
G|---------------------------------------------------------------------|
D|---------------------------------------------------------------------|
A|-8---8-8-8-8-8---11--11-11-11-11-11--6---6-6-6-6-6\3-3-3-3-3-3-3-3-3-|
E|-6---6-6-6-6-6---9---9--9--9--9--9---4---4-4-4-4-4\1-1-1-1-1-1-1-1-1-|
                                                     x x x x x x x x x
Verse 0:15
e|----------------------------------------------------------------------|
B|----------------------------------------------------------------------|
G|----------------------------------------------------------------------|
D|----------------------------------------------------------------------|x3
A|-8---8-8-8-8-8---11--11-11-11-11-11--6---6-6-6-6-6--6-6-6-6-6-6-6-6---|
E|-6---6-6-6-6-6---9---9--9--9--9--9---4---4-4-4-4-4--4-4-4-4-4-4-4-4---|
                                                      x x x x x x x x

e|------------------------------------------------------|
B|------------------------------------------------------|
G|------------------------------------------------------|
D|------------------------------------------------------|
A|-8---8-8-8-8-8---11--11-11-11-11-11--6---6-6-6-6-6--3-|
E|-6---6-6-6-6-6---9---9--9--9--9--9---4---4-4-4-4-4--1-|

Chorus 1 0:41
e|-------------------------------------------------------------------|
B|-------------------------------------------------------------------|
G|-------------------------------------------------------------------|
D|-------------------------------------------------------------------|
A|-8---8-8-8-8-8---11--11-11-11-11-11--6---6-6-6-6-6\3-3-3-3-3-3-3-3-|
E|-6---6-6-6-6-6---9---9--9--9--9--9---4---4-4-4-4-4\1-1-1-1-1-1-1-1-|
                                                     x x x x x x x x

e|------------------------------------------------------|
B|------------------------------------------------------|
G|------------------------------------------------------|
D|------------------------------------------------------|
A|-8---8-8-8-8-8---11--11-11-11-11-11--6---6-6-6-6-6--3-|
E|-6---6-6-6-6-6---9---9--9--9--9--9---4---4-4-4-4-4--1-|

e|-------------------------------------------------------------------|
B|-------------------------------------------------------------------|
G|-------------------------------------------------------------------|
D|-------------------------------------------------------------------|x2
A|-8---8-8-8-8-8---11--11-11-11-11-11--6---6-6-6-6-6\3-3-3-3-3-3-3-3-|
E|-6---6-6-6-6-6---9---9--9--9--9--9---4---4-4-4-4-4\1-1-1-1-1-1-1-1-|
                                                     x x x x x x x x
e|-----------|
B|-----------|
G|-----------|
D|-----------|
A|-3-3-3-3-3-|
E|-1-1-1-1-1-|
   x x x x x
[ Tab from: http://www.guitartabs.cc/tabs/m/misfits/descending_angel_tab_ver_4.html ]
Verse 1:09
Chorus 2 1:35
e|-------------------------------------------------------------------|
B|-------------------------------------------------------------------|
G|-------------------------------------------------------------------|
D|-------------------------------------------------------------------|
A|-8---8-8-8-8-8---11--11-11-11-11-11--6---6-6-6-6-6\3-3-3-3-3-3-3-3-|
E|-6---6-6-6-6-6---9---9--9--9--9--9---4---4-4-4-4-4\1-1-1-1-1-1-1-1-|
                                                     x x x x x x x x

e|------------------------------------------------------|
B|------------------------------------------------------|
G|------------------------------------------------------|
D|------------------------------------------------------|
A|-8---8-8-8-8-8---11--11-11-11-11-11--6---6-6-6-6-6--3-|
E|-6---6-6-6-6-6---9---9--9--9--9--9---4---4-4-4-4-4--1-|

e|-------------------------------------------------------------------|
B|-------------------------------------------------------------------|
G|-------------------------------------------------------------------|
D|-------------------------------------------------------------------|x2
A|-8---8-8-8-8-8---11--11-11-11-11-11--6---6-6-6-6-6\3-3-3-3-3-3-3-3-|
E|-6---6-6-6-6-6---9---9--9--9--9--9---4---4-4-4-4-4\1-1-1-1-1-1-1-1-|
                                                     x x x x x x x x
e|-----------------|
B|-----------------|
G|-----------------|
D|-----------------|
A|-3-3-3-3-3-3-3-3-|
E|-1-1-1-1-1-1-1-1-|
   x x x x x x x x

Solo 2:03
e|---------------------------------------------------------------------------|
B|---------------------------------------------------------------------------|
G|-------------------------------------------------------------6/8-11p10p8---|
D|-3/8---10-11---11---10-8-11-10---10p8\6---8h10h11--10h11h13----------------|
A|---------------------------------------------------------------------------|
E|---------------------------------------------------------------------------|

e|------------------------------------------------------------------|
B|------------------------------------------------------------------|
G|-11p10p8---11p10p8---11p10p8-10~~~10~~10~-------------------------|
D|------------------------------------------8-7---8-7---8-7---8-7---|
A|----------------------------------------------8-----8-----8-----8-|
E|------------------------------------------------------------------|

e|--------------------------------------------------------------------------|
B|--------------------------------------------------------------------------|
G|--------------------------------------------------------------------------|
D|-6-5---6-5---6-5---6-5---4-3---4-3-------6-5---6-5----8-7---8-7---8--\----|
A|-----6-----6-----6-----6-----4-----4---6-----6-----6------8-----8---------|
E|--------------------------------------------------------------------------|

Chorus 2 2:29

Outro 2:57
e|---------------------------------------------------------------------|
B|---------------------------------------------------------------------|
G|---------------------------------------------------------------------|
D|---------------------------------------------------------------------|x3
A|-8---8-8-8-8-8---11--11-11-11-11-11--6---6-6-6-6-6\3-3-3-3-3-3-3-3-3-|
E|-6---6-6-6-6-6---9---9--9--9--9--9---4---4-4-4-4-4\1-1-1-1-1-1-1-1-1-|
                                                     x x x x x x x x x

e|------------------------------------------------------------------|
B|------------------------------------------------------------------|
G|------------------------------------------------------------------|
D|------------------------------------------------------------------|
A|-8---8-8-8-8-8---11--11-11-11-11-11--6-6-6-6-6-6-6-6-3----------8-|
E|-6---6-6-6-6-6---9---9--9--9--9--9---4-4-4-4-4-4-4-4-1----------6-|
				       slower
Comments