Misfits - Descending Angel Chords & Tabs

 

Descending Angel Chords & Tabs

Misfits Chords & Tabs

Version: 3 Type: Tab 0 ratings
1 star 2 stars 3 stars 4 stars 5 stars
comments

Descending Angel Tab

Band: Misfits
Album: Famous Monsters
Song: Descending Angel
Tabbed By: Masterof6String

/=Slide Up
\=Slide Down
h=Hammer On
p=Pull Off
v=vibrato


e--------------------------------------------------------------------------|
b--------------------------------------------------------------------------|
g----------------------------------------------------------12p11p9-12p11p9-|
d-4/9-9h11-12-12p11p9h11h12p11p9\7-7h9h11-9h11h12-11h12h14-----------------|
a--------------------------------------------------------------------------|
E--------------------------------------------------------------------------|
[ Tab from: http://www.guitartabs.cc/tabs/m/misfits/descending_angel_tab_ver_3.html ]
e--------------------------------------------------------------------------|
b--------------------------------------------------------------------------|
g-12p11p9-12p11p9-11vvvv---------------------------------------------------|
d------------------------9-8---9-8---9-8---9-8---7-6---7-6---7-6---7-6-----|
a----------------------------9-----9-----9-----9-----7-----7-----7-----7---|
E--------------------------------------------------------------------------|

e--------------------------------------------------------------------------|
b--------------------------------------------------------------------------|
g--------------------------------------------------------------------------|
d-5-4---5-4-----7-6---7-6---9-8---9-8---9-8\-------------------------------|
a-----5-----5-7-----7-----9-----9-----9------------------------------------|
E--------------------------------------------------------------------------|

There you go.
Comments