Misfits - Day Of The Dead Chords & Tabs

 

Day Of The Dead Chords & Tabs

Misfits Chords & Tabs

Version: 1 Type: Tab 0 ratings
1 star 2 stars 3 stars 4 stars 5 stars
comments

Day Of The Dead Tab

Band: Misfits
Song: Day of the Dead

Tabber: John Cukras
Email: riffreaper@yahoo.com

Tuning: Normal

Riff 1:
E---------------------------|
B---------------------------|
G---------------------------|
D-2-----7-9~--4-------------|
A-2-5-7-5-7~--2-7-5-4 x's 2-|
E-0-3-5---------5-3-2-------|

Riff 2:  Part A             Part B
E---------------------|--------------------------------------|
B---------------------|--------------------------------------|
G---------------------|--------------------------------------|
D---------------------|------------------------------55555-7-|
A-6-6666-3-3333-------|-5----------3-----------------33333-5-|
E-4-4444-1-1111 x's 2-|-3-33333333-1-11111111 x's 2----------|
pm                        ........   ........

Riff 2

Riff 2: Part A x's 2
[ Tab from: http://www.guitartabs.cc/tabs/m/misfits/day_of_the_dead_tab.html ]
Riff 3:
E--------------------------------------|
B--------------------------------------|
G--------------------------------------|
D-7777777---------777777-9999--4-------|
A-5555555-7777777-555555-7777--2-7-5-4-|
E---------5555555----------------5-3-2-|

Riff 2: Part A x's 2

Riff 4:
E---------------------------------------|
B---------------------------------------|
G---------------------------------------|
D-6666666--------666666-888888--4-------|
A-4444444-666666-444444-666666--2-7-5-4-|
E---------444444------------------5-3-2-|

Riff 5:
E-------------------------------------------------------------|
B-------------------------------------------------------------|
G-------------------------------------------------------------|
D----------------66666-88888----------666666-88888--------6-6-|
A-6-6666-3-33333-44444-66666----------444444-66666 x's 2--4-4-|
E-4-4444-1-11111------------ x's 4----------------------------|

Riff 6:
E--------------------------------------------------|
B--------------------------------------------------|
G--------------------------------------------------|
D-------------------888-777-666-444------------2-2-|
A-33333333-5555555--666-555-444-222------7-6---2-2-|
E-11111111-3333333------------------000--5-4---0-0-|
pm                                  ...
Comments