Misfits - Crawling Eye Chords & Tabs

 

Crawling Eye Chords & Tabs

Misfits Chords & Tabs

Version: 2 Type: Bass Tab 0 ratings
1 star 2 stars 3 stars 4 stars 5 stars
comments

Crawling Eye Bass Tab

Crawling Eye - Misfits
tabbed by: ryan b

Definitely the best song on the CD...

Riff A: (twice)
A---------55-44---------00-22---------55-44--0-0-0-2-2-2--
E--2h4-44--------2h4-44--------2h4-44---------------------

Riff B: (3 times)
A--1-1111----------4-4444----------
E----------2-2222----------4-4444--

Riff C: (once)
A--1-1111---------------------------------------------
E----------2-2222--4-4444--4-4444--44444444--4-4-4-4--
[ Tab from: http://www.guitartabs.cc/tabs/m/misfits/crawling_eye_btab_ver_2.html ]
Riff D: (once)
A--1-1111-------------1-1111------4-4-4--
E----------2-2-4-4-4----------2-2--------

Riff E: (once)
A--1-1111--4-4444-------------------
E------------------2-2222--4-4-4-4--

Riff D: (once)

Riff F: (once)
A--1-1111--4-4444-----------------------------
E------------------2-2222--4-4-4-4--44444444--

Riff G: (twice)
A--44444444-3-2----
E---------------4--

Riff A: (twice)
Riff B: (3 times)
Riff C: (once)
Riff D: (once)
Riff E: (once)
Riff D: (once)
Riff F: (once)
Riff G: (twice)
Riff A: (4 times) - Ending on F# (E string 2cd fret)

Comments