Misfits - Bullet Chords & Tabs

 

Bullet Chords & Tabs

Misfits Chords & Tabs

Version: 3 Type: Tab 0 ratings
1 star 2 stars 3 stars 4 stars 5 stars
comments

Bullet Tab

   

	Title: Bullet
	Band: Misfits
	Album: ???
	Transcribed by: Dave, who has never written tabs before
	
    PART A
E--------------------------------------------------------------------------
B--------------------------------------------------------------------------
G-------------------------------------------------5-5-5-------------------
D---7-7-7-7-7-7-7-7-7-7-7-7-7-7-7--5-5-5-5--3-3-3-7--7-7-7-7-7-7-
A---5-5-5-5-5-5-5-5-5-5-5-5-5-5-5--3-3-3-3---------5--5-5-5-5-5-5-
E--------------------------------------------------------------------------
	(REPEAT ALOT)


    PART B
E------------------------------------------------------------------------------
B------------------------------------------------------------------------------
G------------------------------------------------------------------------------
D---7-7-7-7-7-7-7-7-7-7-7-7-7-7-7-7--5-5-5-5-5-5-5-5-5-5-5-5-5-5-5-5
A---5-5-5-5-5-5-5-5-5-5-5-5-5-5-5-5--3-3-3-3-3-3-3-3-3-3-3-3-3-3-3-3
E------------------------------------------------------------------------------

[ Tab from: http://www.guitartabs.cc/tabs/m/misfits/bullet_tab_ver_3.html ]
E------------------------------------------------------------------------------
B------------------------------------------------------------------------------
G------------------------------------------------------------------------------
D---3-3-3-3-3-3-3-3--5-5-5-5-5-5-5-5--7-7-7-7-7-7-7-7-7-7-7-7-7-7-7-7
A---1-1-1-1-1-1-1-1--3-3-3-3-3-3-3-3--5-5-5-5-5-5-5-5-5-5-5-5-5-5-5-5
E-------------------------------------------------------------------------------

   
     PART C

E-------------------------------------------------------------------------------
B-------------------------------------------------------------------------------
G---7-7-7-7-7-7-7-7----------------------7-7-7-7-7-7-7-7--
D---5-5-5-5-5-5-5-5--7-7-7-7-7-7-7-7--5-5-5-5-5-5-5-5--7-7-7-7-7-7-7-7
A-----------------------5-5-5-5-5-5-5-5---------------------5-5-5-5-5-5-5-5
E--------------------------------------------------------------------------------
	(REPEAT AS NECESARY)

	The outro to "Bullet" is more or less the same as the intro, or "Part A." So, when 
concluding this masterpeice on your axe, just work with what you started with. The best way 
to tell if your correct is to listen to the song (NO SCHWAY!). I hope you enjoy. Also, remember that the amount of times 
I said to play a cord may not be exact, so use your shredder instinct: Turn up your amp, throw on the distortion, and
smash out this song while pretending Danzig is at the front of the stage yelling lyrics, as the crowd screams it's appreciation
at your ingeniouse guitar work.
			ENJOY!
			       ---Dave


Comments