Misfits - Bloodfeast Chords & Tabs

 

Bloodfeast Chords & Tabs

Misfits Chords & Tabs

Version: 2 Type: Tab 0 ratings
1 star 2 stars 3 stars 4 stars 5 stars
comments

Bloodfeast Tab

   
Misfits - Bloodfeast

Tabber: Alexander J Taylor
Email: alex_taylor_86@hotmail.com

Tuning: normal

Riff 1: Inrto and Verse

E----------------------------------------------
B----------------------------------------------
G----------------------------------------------
D-99999-777777-777777-99999-(10)(10)-(10)-(10)-
A-77777-555555-555555-77777---8---8----8----8--
E-00000-000000-000000-00000---0---0----0----0--


Riff 2: Chorus
[ Tab from: http://www.guitartabs.cc/tabs/m/misfits/bloodfeast_tab_ver_2.html ]
E----------------------------------------------
B----------------------------------------------
G--------------99999---------------------------
D-77777-555555-99999-(10)(10)-(10)-(10)--------
A-77777-333333-77777---8---8----8----8---------
E-55555-000000-00000---0---0----0----0---------



Riff 3: And that blood..

E-----------------------
B-----------------------
G-----------------------
D------7777-9999-*******
A-5555-5555-7777-8888888
E-3333-0000-0000-0000000    * = 10th threat


Song structure

Intro/Verse x4
Chorus x2
Intro/Verse x4
Chorus x2
And that blood... x2
Intro/Verse x4
Chorus x2
And that blood... x2
Intro/Verse x4

Thats it, this is correct way to play bloodfeast!
Comments