Misfits - Astro Zombies Chords & Tabs

 

Astro Zombies Chords & Tabs

Misfits Chords & Tabs

Version: 1 Type: Tab 0 ratings
1 star 2 stars 3 stars 4 stars 5 stars
comments

Astro Zombies Tab

intro
----------------------------------------------
----------------------------------------------
----------------------------------------------
11-11-10-10-10-10-8-8-6-6-6-6-4-4-4-4-6-6-6-6- X2
11-11-10-10-10-10-8-8-6-6-6-6-4-4-4-4-6-6-6-6-
9--9--8--8--8--8--6-6-4-4-4-4-2-2-2-2-4-4-4-4-

verse
----------------------------------------
----------------------------------------
----------------------------------------
10-10-10-10-10-10-10-10-4-4-4-4-6-6-6-6- X2
10-10-10-10-10-10-10-10-4-4-4-4-6-6-6-6-
9--9--9--9--9--9--9--9--2-2-2-2-4-4-4-4-
[ Tab from: http://www.guitartabs.cc/tabs/m/misfits/astro_zombies_tab.html ]
chorus
---------------------------------------------------------------------------------
---------------------------------------------------------------------------------
----------------------------------------10-10-10-10-10-10-10-10------------------
11-11-11-11-11-11-11-11-----------------10-10-10-10-10-10-10-10--4-4-4-4-6-6-6-6-
11-11-11-11-11-11-11-11-8-8-8-8-8-8-8-8--8--8--8--8--8--8--8--8--4-4-4-4-6-6-6-6-
9--9--9--9--9--9--9--9--6-6-6-6-6-6-6-6--------------------------2-2-2-2-4-4-4-4-
X4

then verse 2 times, then chorus 4 times, i dont know, i lost track of when to
play what, but those are all the tabs. email me for anything- theckyguy502@a0l.com
Comments