Misfits - American Psycho Chords & Tabs

 

American Psycho Chords & Tabs

Misfits Chords & Tabs

Version: 1 Type: Tab 0 ratings
1 star 2 stars 3 stars 4 stars 5 stars
comments

American Psycho Tab

MmMmM     MmMmM
MmMmMm   mMmMmM     IIIII        SSSSSSSS    FFFFFFFFFFFFF    IIII   TTTTTTTT   SSSSSSSS
mMmMmMm mMmMmMm     IIIIII      SSSSSSSSS    FFFFFFFFFFFFF    IIIII  TT TT TT  SSSSSSSSS
MmMmMmMmMmMmMmM     IIIIII      SssS   SS    FFF        FF    IIIII     TT     SssS   SS
MmM   MmM   MmM     IIIII        SSSS   S    FFF         F    IIII      TT      SSSS   S 
mMm   mMm   mMm     IIII           SSS       FFF    FF        III       TT       SSS 
MmM   MmM   MmM     IIII            SSS      FFFFFFFFF        III       TT        SSS 
mMm   mMm   mMm     IIII      S      SSS     FFF    FF        III       TT  S      SSS
MmM   MmM   MmM     IIII      SS    SSSSS    FFF              III       TT  SS    SSSSS        
mMm   mMm   mMm     IIII      SSSSSSSSSS     FFF              III       TT  SSSSSSSSSS 
MmM   MmM   MmM     IIII       SSSSSSSS      FFF              III       TT   SSSSSSSS

Artist:Misfits
Song:American Psycho
Tabbed By:Ramones1023
listen to song for rythm on this part
|-------------| |------------|
|-------------| |------------|
|-------------| |------------|
|-7-7---------| | 9-9--11-11-|
|-5-5-7-7-----| |-7-7---9-9--|
|-----5-5-----| |------------|

|--------------------|
|--------------------|
|--------------------|
|-----------5555-----|
|-3333-6666-3333-6-5-|
|-1111-4444------4-3-|
.......pm.......

|-------------|  |------------|
|-------------|  |------------|
|-------------|  |------------|
|-7-7---------|  | 9-9--11-11-|
|-5-5-7-7-----|  |-7-7---9-9--|
|-----5-5-----|  |------------|

|-----------|
|-----------|
|-----------|
|-8-8-------|
|-6-6-44-66-|
|-----22-44-|


thats pretty much the whole song.




[ Tab from: http://www.guitartabs.cc/tabs/m/misfits/american_psycho_tab.html ]
Comments