Misfits - 20 Eyes Chords & Tabs

 

20 Eyes Chords & Tabs

Misfits Chords & Tabs

Version: 1 Type: Bass Tab 0 ratings
1 star 2 stars 3 stars 4 stars 5 stars
comments

20 Eyes Bass Tab

first track on the walk among us cd its a good song you can see my album bass tab for
walk among us check it out rate this and the album please


Rif: 1
G---------------------------------------|
D---------------------------------------|
A---9(x8)---7(x8)----9(x8)--------------|
E---------------------------------------|

Rif: 2
G---------------------------------------------------------------------|
D---------------------------------------------------------------------|
A-9(x8)-7(x8)-9(x8)-9(x8)-7(x8)-9(x8)-9(x8)---7(x8)---777--9'--7'--9'-|
E-------------------------------------------7(x8)---------------------|
[ Tab from: http://www.guitartabs.cc/tabs/m/misfits/20_eyes_btab.html ]
Rif: 3
G------------------------------------------------------------------|
D------------------------------------------------------------------|
A---9(x8)---7(x8)---9(x8)---9(x8)---7(x8)---7779(x8)7(x8)9(x8)--|
E------------------------7(x8)-------------------------------------|

Rif: 4
G--------------------------------------------------------------------|
D--------------------------------------------------------------------|
A-------9(x12)---------9(X12--------9(x12)-----9(X12)--------777-----|
E--9(x12)---------9(x12)--------9(x12)-------9(x12)----7777----------|

(Rif: 2)
(Rif: 4)
(Rif: 2)

Rif 5
G----------------------------------------------------------------------------|
D----------------------------------------------------------------------------|
A--9(x8)---7(x8)---9(x8)-----9(x8)---7(x8)--9(x8)---9(x8)----7(x8)---9(X8)---|
E------------------------777---------------------777-------------------------|
Comments