Misery Loves Co - My Mind Still Speaks Chords & Tabs

 

My Mind Still Speaks Chords & Tabs

Misery Loves Co Chords & Tabs

Version: 2 Type: Tab 0 ratings
1 star 2 stars 3 stars 4 stars 5 stars
comments

My Mind Still Speaks Tab

#----------------------------------PLEASE NOTE---------------------------------#
#This file is the author's own work and represents their interpretation of the #
#song. You may only use this file for private study, scholarship, or research. #
#------------------------------------------------------------------------------#

MY MIND STILL SPEAKS
"Misery Loves Co."
from the self titled album
transcribed by Brendan

The song contains 4 riffs played over and over.  Although they
are simple when played with thick distortion, drums, bass and
vocals you have one fucking great song!

Dropped D Tuning

VERSE RIFF
E|------------------------------------------------||
B|------------------------------------------------||
G|------------------------------------------------||
D|------------------------------------------------||
A|----------------5-----0h1-----0h1---------------||
D|--0--0--0--0----5--0--0h1--0--0h1--0--0---------||
[ Tab from: http://www.guitartabs.cc/tabs/m/misery_loves_co/my_mind_still_speaks_tab_ver_2.html ]
CHORUS RIFF
E|------------------------------------------------------------||
B|------------------------------------------------------------||
G|------------------------------------------------------------||
D|------------------------------------------------------------||
A|--------------------3----2---------1--7---------------------||
D|---0-----0--0--0----3----2--2--2---1--7---------------------||

FILL
E|--------------------------------------------------------||
B|--------------------------------------------------------||
G|--------------------------------------------------------||
D|--------------------------------------------------------||
A|--1h2-----1h2----1h2----1h2-----1--2--3--4--------------||
D|--1h2--0--1h2-0--1h2-0--1h2--0--1--2--3--4--------------||

OUTRO RIFF
E|-------------------------------------------||
B|-------------------------------------------||
G|-------------------------------------------||
D|-------------------------------------------||
A|--------------1-----3------1------1/2\1----||
D|--0-----0--0--1--0--3--0---1--0---1/2\1----||

E|-------------------------------------------||
B|-------------------------------------------||
G|-------------------------------------------||
D|-------------------------------------------||
A|--------------1------3-----7--7\6--6\1-----||
D|--0-----0--0--1--0---3--0--7--7\6--6\1-----||


These are the basic versions of each of the riffs in the song,
I'll leave it up to you to decide where and when to palm mute etc...

* If anyone knows where to find more tab of this totally awesome band:
 Please write me! *

brendan@iaccess.com.au
Comments