Misconduct - New Beginning Chords & Tabs

 

New Beginning Chords & Tabs

Misconduct Chords & Tabs

Version: 1 Type: Bass Tab 0 ratings
1 star 2 stars 3 stars 4 stars 5 stars
comments

New Beginning Bass Tab

this is probably the trippiest bassline ive ever heard in a harcore song.

tuning-standard-EADGBe

intro

1---------------------|
2-3333-2222-----------|
3----------0----------|
4---------------------|

Verse

1------------------------------|
2----------------5555555-3-2---|
3-0000-2-333-2-0---------------|
4------------------------------|

Chorus

1--------------------------------------------|
2--00------------00-22--33--------3333-5555--|
3----000000000000---------33333333-----------|
4--------------------------------------------|

1-----------------------------------------|
2--00-------------00-22--3---5--0-22222---|
3----0000000000000----------3-------------|
4-----------------------------------------|

Bridge
[ Tab from: http://www.guitartabs.cc/tabs/m/misconduct/new_beginning_btab.html ]
1------555555-------------------------------------------------|
2-----------------5-3-232-------------------------------------|
3-00000------00000---------connects to verse with  3-0--8-----|
4-------------------------------------------------------------|

outro 1(plays just once)

1---------------------|
2---------------------|
3-----10--------------|
4-3/5----3-1111-333---|

outro 2

1----------------------------------------------------------------------|
2-----------------------------------5555555555555555-3333333333-555555-|
3-000000000000000-2-3333333333333333-----------------------------------|
4----------------------------------------------------------------------|

outro 3(same as outro 1 but slower)

1--------------------------------------|
2-------------------55555555-33333-555-|
3-0000000-2-33333333-------------------|
4--------------------------------------|

please rate this well it wasnt easy to tab

peace
Comments