Misc Your Songs - Untitled Chords & Tabs

 

Untitled Chords & Tabs

Misc Your Songs Chords & Tabs

Version: 2 Type: Bass Tab 0 ratings
1 star 2 stars 3 stars 4 stars 5 stars
comments

Untitled Bass Tab

My Song
By Pratman
________________Key_________________
/ = Slide
~ = Let note ring
) = Bend Up
( = Bend Down
(?) = Bend up and down until ringing is stopped.
___________________________________________

Verse

G|--7-7--5-5--4--4-4--5/7-7-7---7-7--5-5--4--4-4--5--7--|
D|------------------------------------------------------|
A|------------------------------------------------------|
E|------------------------------------------------------|

Chorus

G|---2------------------------5--|
D|-------2--3---------4--5-------|
A|--------------3--4-------------|
E|-------------------------------|

Bridge						
[ Tab from: http://www.guitartabs.cc/tabs/m/misc_your_songs/untitled_btab_ver_2.html ]
G|-----------------------------0/1/2--------------------------|
D|--0/1/2-----------------------------0/1/2-------------------|
A|-----------0/1/2-----------------------------0/1/2----------|
E|--------------------0/1/2-----------------------------0/1/2-|

Bridge Pt. 2

G|---0/1/2/12-------------------------------(15)~~~|
D|----------------12-13------------14-15-----------|
A|--------------------------13-14------------------|
E|-------------------------------------------------|

End

G|------------------------------------------------------------|
D|--6-5-3-3-5-6--6---3-3-5-6--6---3-3-5-6--6----3-3-5-(6)~~~~~|
A|------------------------------------------------------------|
E|------------------------------------------------------------|


Song Layout

Verse x2

Chorus x4

Verse x2

Chorus x4

Bridge x2

Bridge Pt. 2 x1

Chorus x4

End x1
Comments