Misc Your Songs - T-bone - Killing Time On The Highschool Chords & Tabs

 

T-bone - Killing Time On The Highschool Chords & Tabs

Misc Your Songs Chords & Tabs

Version: 1 Type: Bass Tab 0 ratings
1 star 2 stars 3 stars 4 stars 5 stars
comments

T-bone - Killing Time On The Highschool Bass Tab

This is an bass solo wich I wrote today with the "band".
You should play it as fast as you can with drums and guitar to back it up, it would be
real cool for progressive music and a bit good for instrumentals or psychadelic songs
witch lasts a while. Or just play it with drums alone to make it like a shred solo, but
remeber to use some effects on it no matter how you play it, I usally uses wah and
distortion (a bit Cliff Burton ripoff, but I dont care) or you could also use
multichorus or some type of echo sound witch I just discovered on an old effect box
today.
h : Hammer on
p : Pull off
/\: Fretboard side
^ : Bend
~ : Let ring
Code
____________________________________________________________________________
G:-3^------------3^--------------------------9-10^9^--------8h7p8h7p8-0-0---|
D:---4-----5-4-3---2-----------------------8--------8----8----------------0-|
A:-----5-5------------1----------------3/7-------------8^-------------------|
E:----------------------1-0-2-3-0-4h1p2-------------------------------------|
____________________________________________________________________________
G:---------------4---0---3---2-4---3-----------3-0---------------------2-3--|
D:-------------3---3---3---2-----3---4-------4-----0------------------1-----|
A:-0-1-2-0-1-2-------------------------5---5---------1-2-3-4-4-3-2-1-0------|
E:-0-1-2-0-1-2---------------------------6--------------------------0-----0-|
____________________________________________________________________________
G:-7-8-9-8-7-9-8-7-6-5-6-6-6-5^-------------4^--------0/17-15-17\0-----4----|
D:-----------------------------0---------3-----3----------------------3-3---|
A:-------------------------------0----2-----------2------------------2---2--|
E:---------------------------------1^----------------1^-------------1-----2-|
____________________________________________________________________________
G:-3^------3^------5-------2^3-4-3^----------3---4-----------10------------5-|
D:---4---4---4---5---4---3---------4-------4---3---5-------9----9------------|
A:-----5-------5^------4-------------5---5-----------6---8--------8---6-5-4--|
E:-------------------------------------0---------------7^-----------0~~~~~~~-|

Try this solo in 120-100bpm that would make it cool sounding.
Thank you for checking out my tab.
Good luck and wishes from Tord the bass player.
Cast all other bulls**** aside and make it your lifestyle.......
[ Tab from: http://www.guitartabs.cc/tabs/m/misc_your_songs/t_bone_killing_time_on_the_highschool_btab.html ]
Comments