Misc Your Songs - Something To Give Me Chords & Tabs

 

Something To Give Me Chords & Tabs

Misc Your Songs Chords & Tabs

Version: 1 Type: Bass Tab 0 ratings
1 star 2 stars 3 stars 4 stars 5 stars
comments

Something To Give Me Bass Tab

G|--------------------------------------------|
D|---0-----------------0----------------------|
A|-------0---10------------0-0-0--------------| x4
E|--------------------------------------------|

G|------------------------------------------------|
D|------------------------------------------------|
A|--5--5--0---3--3--3--0---8--8--8--0---6---6--0--| x4
E|------------------------------------------------|

G|------------------------------------------------|
D|------------------------------------------------|
A|--5---5--5---6---6--6---4---4--4---3---3--3-----| x4
E|------------------------------------------------|
[ Tab from: http://www.guitartabs.cc/tabs/m/misc_your_songs/something_to_give_me_btab.html ]
G|------------------------------------------------|
D|------------------------------------------------|
A|--8---8--8---9---9--9---7---7--7---6---6--6-----| x2
E|------------------------------------------------|
 then a short pause for 10 seconds

G|---------------------------------------------------------------------|
D|---------------------------------------------------------------------|
A|---4---4---4---4---5---5---5---5---3---3---3---3---3---1---1---1---1-| x4
E|-4---4---4---4---5---5---5---5---3---3---3---3---3---1---1---1---1---|

G|---------------------------------------------------------------------|
D|---------------------------------------------------------------------|
A|---4---4---4---4---5---5---5---5---3---3---3---3---3---1---1---1---1-| x4
E|-0---0---0---0---0---0---0---0---0---0---0---0---0---0---0---0---0---|
Comments