Misc Your Songs - Somers Kevin - Forgive Me Chords & Tabs

 

Somers Kevin - Forgive Me Chords & Tabs

Misc Your Songs Chords & Tabs

Version: 1 Type: Tab 0 ratings
1 star 2 stars 3 stars 4 stars 5 stars
comments

Somers Kevin - Forgive Me Tab

Kevin Somers March 24, 2005
You may use my song for: research
Side note: This is my first song I've ever written,
and I've been playing for about a year total.
E-mail is: SoccerKevin_2002@yahoo.com

				Forgive me?


Introduction
e --------------------------------------------------------------------------|
B --------------------------------------------------------------------------|
G -----5--------5-----------------------------------------------------------|
D ---5---------5--------5---------5-------2---------2-------3----------3----|
A -3-------3----------5----------5------2----------2------3-----------3-----|
E ------------------3--------3--------0--------0--------1---------1---------|


e --------------------------------------------------------------------------|
B --------------------------------------------------------------------------|
G -----5--------5-----------------------------------------------------------|
D ---5---------5--------5---------5-------2---------2-------3----------3----|
A -3-------3----------5----------5------2----------2------3-----------3-----|
E ------------------3--------3--------0--------0--------1---------1---------|

  One bad decision leads to another... only too late it is discovered

e --------------------------------------------------------------------------|
B --------------------------------------------------------------------------|
G -----5--------5-----------------------------------------------------------|
D ---5---------5--------5---------5-------2---------2-------3----------3----|
A -3-------3----------5----------5------2----------2------3-----------3-----|
E ------------------3--------3--------0--------0--------1---------1---------|

 My mistake hurt more than myself... now my heart is hangin' on the shelf


e ------------------------------|
B ------------------------------|
G -5-5--5-----------------------|
D -5-5--5----5-5--2-2--3---3-3--|
A -3-3--3----5-5--2-2--3---3-3--|
E -----------3-3--0-0--1---1-1--|
[ Tab from: http://www.guitartabs.cc/tabs/m/misc_your_songs/somers_kevin_forgive_me_tab.html ]
Forgive me for all that I've done

e ------------------------------|
B ------------------------------|
G -5-5--5-----------------------|
D -5-5--5----5-5--2-2--3---3-3--|
A -3-3--3----5-5--2-2--3---3-3--|
E -----------3-3--0-0--1---1-1--|

For lesser wars have been won

e --------------------------------------------------------------------------|
B --------------------------------------------------------------------------|
G -----5--------5-----------------------------------------------------------|
D ---5---------5--------5---------5-------2---------2-------3----------3----|
A -3-------3----------5----------5------2----------2------3-----------3-----|
E ------------------3--------3--------0--------0--------1---------1---------|

I made a mistake an irreversable mistake, a mistake that i will forever pay


e --------------------------------|
B --------------------------------|
G ---------------------5--5-5-----|
D -2--2--3--3--5-5-5-5-5--5-5-----|
A -2--2--3--3--5-5-5-5-3--3-5-----|
E -0--0--1--1--3-3-3-3------------|

now let me make it up to you starting today


e--------------------------------------------------------------------------------------------|
b--------------------------------------12-13-13-15-13-12-13---12-----------------------------|
d-14-14-14-12-14-14-14-12--12-------------------------------14--14-14-12-14--12--------------|
g---------------------14--14-14-12-14--------------------------------------14--14-14-12-14~--|
a--------------------------------------------------------------------------------------------|
e--------------------------------------------------------------------------------------------|

e ------------------------------------------------------|
B ------------------------------------------------------|
G ----------------------------------5~------------------|
D -2-2-3----2-2-3----2-2-3----2-2-5-5~------------------|
A -2-2-3----2-2-3----2-2-3----2-2-5-3~------------------|
E -0-0-1----0-0-1----0-0-1----0-0-3---------------------|

 Forgive me....Forgive me....Forgive me....Will you ever?
Comments