Misc Your Songs - Sexual Harasment Panda Chords & Tabs

 

Sexual Harasment Panda Chords & Tabs

Misc Your Songs Chords & Tabs

Version: 1 Type: Bass Tab 0 ratings
1 star 2 stars 3 stars 4 stars 5 stars
comments

Sexual Harasment Panda Bass Tab

I dedicate this Tab to Steven Erickson

g-----------------------------------
d--2-2-2-2-2-4-2--------------------
a----------------4-------------2-0--
e--------------------0-0-0-2-4------

Now repeat this a bunch of times

[ Tab from: http://www.guitartabs.cc/tabs/m/misc_your_songs/sexual_harasment_panda_btab.html ]
g-----------------------------------
d--2-2-2-2-2-4-2--------------------
a----------------4-------------2-0--
e--------------------0-0-0-2-4------

g-----------------------------------
d--2-2-2-2-2-4-2--------------------
a----------------4-------------2-0--
e--------------------0-0-0-2-4------
Comments