Misc Your Songs - Richard Walker - Goat Chords & Tabs

 

Richard Walker - Goat Chords & Tabs

Misc Your Songs Chords & Tabs

Version: 1 Type: Tab 0 ratings
1 star 2 stars 3 stars 4 stars 5 stars
comments

Richard Walker - Goat Tab

   
Goat by Richard Walker (Copyright 2002) <-Legal shit pisses me off and Not Very Good

I like this one, it's better than "Headed Towards Disaster" 'cos there's more variation in it.
It's really laid back. Not aggressive at all. Laid back stuff, very cool. No  Also, unlike 
"Headed Towards Disaster" this doesn't sound like anything else. Another reason why i 
should win an MTV award....................those bastards on the selection board
don't like me.
Anyway, as the great (insert name here) said (insert well known phrase here)!

Legend:

/=slide
PM=palm muting
"=downstroke
^=upstroke


Intro / Chorus

e<-0-0-0-0-0-0-0-0-0-0-0-0->
b<-0-0-0-0-0-0-0-0-0-0-0-0->
g<-2-2-2-4-4-4-6-6-6-5-5-5->
d<-2-2-2-4-4-4-6-6-6-5-5-5->
a<-0-0-0-2-2-2-4-4-4-3-3-3->
E<------------------------->
[ Tab from: http://www.guitartabs.cc/tabs/m/misc_your_songs/richard_walker_goat_tab.html ]
e<-0-0-0-0-0-0-0-0-0-0-0-0->
b<-0-0-0-0-0-0-0-0-0-0-0-0->
g<-2-2-2-4-4-4-5-5-5-6-6-6->
d<-2-2-2-4-4-4-5-5-5-6-6-6->
a<-0-0-0-2-2-2-3-3-3-4-4-4->
E<------------------------->

e<-0-0-0-0-0-0-0-0-0-0-0-0->
b<-0-0-0-0-0-0-0-0-0-0-0-0->
g<-2-2-2-4-4-4-6-6-6-5-5-5->
d<-2-2-2-4-4-4-6-6-6-5-5-5->
a<-0-0-0-2-2-2-4-4-4-3-3-3->
E<------------------------->



Verse
   " ^ "   " ^ "   " ^ "
e<-0-0-0---0-0-0---0-0-0-> the beats are spaced out. U must wait 3
b<-0-0-0---0-0-0---0-0-0-> or it won't work!!!!
g<-0-0-2---0-0-0---0-0-7->
d<-0-0-2---0-0-2---0-0-7->
a<-0-0-0---0-0-2---0-0-0->
E<----------------------->

Bridge

e<------------------->
b<------------------->
g<-0-0-2-------0-0-7->
d<-------0-0-2------->
a<------------------->
E<------------------->


Bridge buildup

e<-0->the beats are spaced out. U must wait 3
b<-0-> or it won't work!!!!
g<-0->
d<-2->
a<-2->
E<--->
This bits wants to be slow and fairly quiet but speed up and get louder. Then BANG! 
straight into the chorus.

Order

Intro x 2
Verse x 2
Chorus x3
Verse x 2
Chorus x 2
Bridge x 2
Bridge buildup x 10
Chorus x 3
Comments