Misc Your Songs - Leo Ted - The High Party Chords & Tabs

 

Leo Ted - The High Party Chords & Tabs

Misc Your Songs Chords & Tabs

Version: 1 Type: Tab 0 ratings
1 star 2 stars 3 stars 4 stars 5 stars
comments

Leo Ted - The High Party Tab

-------------------------------------------------------------------------------
			     SONG NAME - Band Name
-------------------------------------------------------------------------------
Tabbed by:
Email:

Tuning:

e|-------9----11-9----9-------9----11-9----9--------9----11-9----9—-------9---11-9----9--|
B|-11-11---11------11---11-11---11------11----10-10---10------10----10-10---10-----10----|
G|---------------------------------------------------------------------------------------|
D|---------------------------------------------------------------------------------------|
A|---------------------------------------------------------------------------------------|
E|---------------------------------------------------------------------------------------|

e|-----8---11-8---8------8---11-8----8-----8---11-8---8------8---11-8---8------|
B|-----------------------------------------------------------------------------|
G|-8-8---8------8----8-8---8------8----8-8---8------8----8-8---8------8--------|
D|-----------------------------------------------------------------------------|
A|-----------------------------------------------------------------------------|
E|-----------------------------------------------------------------------------|

e|-------12----14-12----12------12---14-12----12-------12----14-12----12-------|
B|-14-14----14-------14----14-14---14------14----13-13----13-------13----------|
G|-----------------------------------------------------------------------------|
D|-----------------------------------------------------------------------------|
A|-----------------------------------------------------------------------------|
E|-----------------------------------------------------------------------------|
[ Tab from: http://www.guitartabs.cc/tabs/m/misc_your_songs/leo_ted_the_high_party_tab.html ]
e|-------12----14-12----12-----8---11-8---8-----8---11-8---8-----8---11-8---8---|
B|-13-13----13-------13---------------------------------------------------------|
G|-------------------------8-8---8------8---8-8---8------8---8-8---8------8-----|
D|------------------------------------------------------------------------------|
A|------------------------------------------------------------------------------|
E|------------------------------------------------------------------------------|

e|-----8---11-8---8----5--5--5-8-8-8—chords-x5--------------------------------------|
B|---------------------6--6--6-6-6-6------------------------------------------------|
G|-8-8---8------8------7--7--7-7-7-7------------------------------------------------|
D|----------------------------------------------------------------------------------|
A|----------------------------------------------------------------------------------|
E|----------------------------------------------------------------------------------|

e|-------------------------------------------------------------------------------|
B|-------------------------------------------------------------------------------|
G|-------------------------------------------------------------------------------|
D|--8-8-8-8--9-9-9-9-8-8-8-8--9-9-9-9—chorus:--9----------6----------------------|
A|--8-8-8-8--9-9-9-9-8-8-8-8--9-9-9-9----------9-x16------6-x16------------------|
E|--6-6-6-6--7-7-7-7-6-6-6-6--7-7-7-7----------7----------6----------------------|

e|-----------------------------------------------------------------------------|
B|-----------------------------------------------------------------------------|
G|-----------------------------------------------------------------------------|
D|--3-3-3-3-3-3--7-7-7-7-7-7--3-3-3-3-3-3--8-8-8-------------------------------|
A|--3-3-3-3-3-3--7-7-7-7-7-7--3-3-3-3-3-3--8-8-8-reapeat chorus once more------|
E|--1-1-1-1-1-1--5-5-5-5-5-5--1-1-1-1-1-1--6-6-6-------------------------------|

e|---------------------------------------------------------------------------|
B|---------------------------------------------------------------------------|
G|---------------------------------------------------------------------------|
D|---------------------------------------------------------------------------|
A|---------------------------------------------------------------------------|
E|---------------------------------------------------------------------------|
Comments