Misc Your Songs - Kyle Graham - Let Go Chords & Tabs

 

Kyle Graham - Let Go Chords & Tabs

Misc Your Songs Chords & Tabs

Version: 1 Type: Tab 0 ratings
1 star 2 stars 3 stars 4 stars 5 stars
comments

Kyle Graham - Let Go Tab

   
song:let go
artist: kyle graham
tabber: kylegrahamfan28

this is an awesome tab by a brilliant guitarist and musician from SA he is in an
underground band that has small but faithful following
   intro
e |----------0-----|----------0-----|----------0-----|----------------|\
B |------------0---|------------0---|------------0---|--------------0-| |
G |------0---------|------0---------|------0---------|------0-----0---| |
D |----2-----------|----0-----------|----2-----------|----0-----0-----| |
A |--2-------------|--2-------------|--3-------------|--2-----0-------| |
E |0---------------|2---------------|0---------------|3---------------|/
   1e+a2e+a3e+a4e+a 1e+a2e+a3e+a4e+a 1e+a2e+a3e+a4e+a 1e+a2e+a3e+a4e+a

  verse1
e |----------------|----------------|----------------|----------------| \
B |----------------|----------------|----------------|----------------|  |
G |------0-------0-|------0-------0-|------0-------0-|------0-----0---|  | x7
D |----2-------0---|----2-------0---|----2-------0---|----2---------0-|  | 
A |--2-------2-----|--3-------2-----|--2-------2-----|--3-------2-----|  |
E |0-------2-------|0-------3-------|0-------2-------|0-------3-------| /
   1e+a2e+a3e+a4e+a 1e+a2e+a3e+a4e+a 1e+a2e+a3e+a4e+a 1e+a2e+a3e+a4e+a
   chorus intro
e |----------------|
B |----------------|
G |----------------|
D |----2-------0---|
A |----------2-----|
E |0-------3-------|
   1e+a2e+a3e+a4e+a 
   chorus
e |----------------|----------------|
B |----------------|----------------|
G |0-00-0000-------|0-00-0000-------|
D |2-22-2220-------|2-22-2220-------|
A |2-22-2222-------|3-33-3332-------|
E |0-00-0002-------|0-00-0003-------|
   1e+a2e+a3e+a4e+a 1e+a2e+a3e+a4e+a
[ Tab from: http://www.guitartabs.cc/tabs/m/misc_your_songs/kyle_graham_let_go_tab.html ]
e |----------------|----------------|----------------|----------------|
B |----------------|----------------|----------------|----------------|
G |0-00-0000-00-000|0-00-0000-00-000|0-00-0000-00-000|0-00-0000-00-000|
D |2-22-2220-00-000|2-22-2220-00-000|2-22-2220-00-000|2-22-2220-00-000|
A |2-22-2222-22-222|3-33-3332-22-222|2-22-2222-22-222|3-33-3332-22-222|
E |0-00-0002-22-222|0-00-0003-33-333|0-00-0002-22-222|0-00-0003-33-333|
   1e+a2e+a3e+a4e+a 1e+a2e+a3e+a4e+a 1e+a2e+a3e+a4e+a 1e+a2e+a3e+a4e+a

e |----------------|----------------|----------------|
B |----------------|----------------|----------------|
G |0-00-0000-00-000|0-00-0000-00-000|----------------|
D |2-22-2220-00-000|2-22-2220-00-000|----------------|
A |2-22-2222-22-222|3-33-3332-22-222|----------------|
E |0-00-0002-22-222|0-00-0003-33-333|----------------|
   1e+a2e+a3e+a4e+a 1e+a2e+a3e+a4e+a 1e+a2e+a3e+a4e+a     
  
  verse 2
e |----3------3----|----3-------3---|----3-------3---|----3-------3---| \
B |----3------3----|----3-------3---|----3-------3---|----3-------3---|  |
G |0---0-0000-0--00|0-0-0-00000-0-00|000-0-00000-0-00|000-0-00000-0---|  | x13
D |2-----2222----22|2-2---22222---22|000---00000---00|000---00000-----|  |
A |2-----2222----22|3-3---33333---33|222---22222---22|222---22222-----|  |
E |0-----0000----00|0-0---00000---00|333---33333---33|222---22222-----| /
   1e+a2e+a3e+a4e+a 1e+a2e+a3e+a4e+a 1e+a2e+a3e+a4e+a 1e+a2e+a3e+a4e+a

e |----------------|----------------|
B |----------------|----------------|
G |----------------|----------------|
D |----------------|----------------|
A |2-2-2-2-2-2-2-2-|2-2-2-2-2-2-2-2-|
E |2-2-2-2-2-2-2-2-|2-2-2-2-2-2-2-2-|
   1e+a2e+a3e+a4e+a 1e+a2e+a3e+a4e+a 1e+a2e+a3e+a4e+a 1e+a2e+a3e+a4e+a
   bridge
e |----------------|----------------|----------------|----------------|\
B |----------------|----------------|----------------|----------------| |
G |----------------|----------------|----------------|----------------| | x 2
D |2-2-2-2-2-2-2-2-|2-2-2-2-2-2-2-2-|0-0-0-0-0-0-0-0-|0-0-0-0-0-0-0-0-| |
A |2-2-2-2-2-2-2-2-|3-3-3-3-3-3-3-3-|2-2-2-2-2-2-2-2-|2-2-2-2-2-2-2-2-| |
E |0-0-0-0-0-0-0-0-|0-0-0-0-0-0-0-0-|3-3-3-3-3-3-3-3-|3-3-3-3-3-3-3-3-|/
   1e+a2e+a3e+a4e+a 1e+a2e+a3e+a4e+a 1e+a2e+a3e+a4e+a 1e+a2e+a3e+a4e+a

order:

intro x2
verse1 x7
chorus intro x1
chorus x1
verse2 x13
chorus x1
intro x1
verse1 x7
bridge x2
chorus x2
Comments