Misc Your Songs - Jibberish Chords & Tabs

 

Jibberish Chords & Tabs

Misc Your Songs Chords & Tabs

Version: 1 Type: Chords 0 ratings
1 star 2 stars 3 stars 4 stars 5 stars
comments

Jibberish Chords

   
Artist:Misc Your Songs
Song:Jibberish
Tabbed by:Bob
Email:freedoggy77@yahoo.com


Chords:

Em-022
Am-xx221
C-x355
B-x244
D-x577
E-x799

Intro-

Em-Em-Am-Am-C-C-B-B-B-B x 5 (on 5th time only play B once.)

then-

E-D-E-D-E-D-C-B x2 THEN- E-D-E-D-E-D-C-B-B-B-B


then-

Em-Em-Am-Am-C-C-B-B-B-B x 5 (on 5th time only play B once.)

then solo it out-

e-0-0-0----------------------------------------------------------------
B--3-3-3-1-0-0-1-0-1-0-------------------------------------------------
G-----------2---------2-2----------------------------------------------
D------------------------14-14-14-12-12-12-10-10-10-9-7-5-7-9-14-12-14-
A----------------------------------------------------------------------
E----------------------------------------------------------------------


then (this is harmonics, don't push the fret)-

e--------------------
B--------------------
G--------------------
D--------------------
A--------------------
E-2-2-2-2-2-2-2-2-2-2 x 10


then -

Em-Em-Am-Am-C-C-B-B-B-B x 5 (on 5th time only play B once.)




Lyrics- ( really fast)After all this guitar, all instruments stop and person sings this
with no background noise.
[ Tab from: http://www.guitartabs.cc/tabs/m/misc_your_songs/jibberish_crd.html ]
Dear Ms. Hoogashmoogaloogaboogacacacranadoo..

you're a physciatrist, and I need you!!!!'
lately my mouth has been sayin weird things I don't
want it to say, It's a load of jibberish and I feel like 
eatin Fish.
 after singin this, play this-

e----------------------------------
B----------------------------------
G-------------4--------------------
D-4-4-4-4-4-4-4-7-4-4-4-4-4-4------
A-4-4-4-4-4-4-2-7-4-4-4-4-4-4------
E-2-2-2-2-2-2---5-2-2-2-2-2-2-0-1--
then-

e----------------------------------
B----------------------------------
G-------------4--------------------
D-4-4-4-4-4-4-4-7-4-4-4-4-4-4------
A-4-4-4-4-4-4-2-7-4-4-4-4-4-4------
E-2-2-2-2-2-2---5-2-2-2-2-2-2-0-1-2

I'm about to tell ya what I've been saying, without any guitar playin...(pause)

crafunky      jodel        wurteo        quaden

e----------------
B-7-7-7-7-7-7-7-7
G----------------
D----------------
A----------------
E----------------

It's a load o jibberish and I hate fish!

e----------------------------------
B----------------------------------
G-------------4--------------------
D-4-4-4-4-4-4-4-7-4-4-4-4-4-4------
A-4-4-4-4-4-4-2-7-4-4-4-4-4-4------
E-2-2-2-2-2-2---5-2-2-2-2-2-2-0-1--
then-

e----------------------------------
B----------------------------------
G-------------4--------------------
D-4-4-4-4-4-4-4-7-4-4-4-4-4-4------
A-4-4-4-4-4-4-2-7-4-4-4-4-4-4------
E-2-2-2-2-2-2---5-2-2-2-2-2-2-0-1-2

See these mood swings! I used to like fish a second ago and now I hate it.
All this jibberish is a load of crappy fish!


e-------------------
B-7-7-7-7-7-5-2-0---
G----------------2-6 - let 6 ring and pull to make vibrato sound.
D-------------------
A-------------------
E-------------------

crafunky      jodel    wurteo   quaden! x2
Comments