Misc Your Songs - Inside Of Me Chords & Tabs

 

Inside Of Me Chords & Tabs

Misc Your Songs Chords & Tabs

Version: 1 Type: Tab 0 ratings
1 star 2 stars 3 stars 4 stars 5 stars
comments

Inside Of Me Tab

I WAS LOOKIN THROUGH SOME OLD MATERIAL THE OTHER DAY AND I FOUND THIS, THE VERY
FIRST SONG I EVA WROTE, AS YOUD EXPECT ITS SHITE BUT IS FUN AND PISS EASY SO I
WROTE IT UP, ITS CALLED "inside of me" AND I SHOWED IT TO THE BAND IM
WITH "drawback (frisky lemurs)"  AND THEY THOUGHT IT WAS SHITE, AND I NEW IT
WAS SHIT, NETHER THE LESS I SAID FUCK THEM AND USED IT NEWAY! ROCK ON

THIS IS MY SONG ITS A PIECE OF PISS BUT OH WELL IF YOU LIKE IT EMAIL ME
imonlymale@hotmail.com IF U DONT DEN DNT!!!. ENJOY.OH YEAH, JUST PLAY AT
THE PACE U WANT.

INTRO:

e|--------------------------------------------------------------|
B|--------------------------------------------------------------|
G|--------------------------------------------------------------|
D|---X-X-X-X-X-X-X-X-5-5---X-X-X-X-X-X-5-5---X-X-X-X-X-X-X-X-5-5|     X2
A|---X-X-X-X-X-X-X-X-5-5---X-X-X-X-X-X-5-5---X-X-X-X-X-X-X-X-5-5|
E|---X-X-X-X-X-X-X-X-3-3---X-X-X-X-X-X-3-3---X-X-X-X-X-X-X-X-3-3|
                   
                     sad.............mad.................angry               


I WAS JUST LAYIN ON MY ED PISSIN ROUND WITH MY GUITAR N GOT DIS INTRO,
SOUNDS PRETTY GOOD WITH HEAVY DISTORTION AND A BEEFY PICKUP!


INTERLUDE:

e|-------------------------------------------------------|
B|-------------------------------------------------------|
G|-------------------------------------------------------|
D|-----5--5--5-5-5/4--4--4-4-4/3--3--3--3-3-3-3--3--3----|     X2
A|-----5--5--5-5-5/4--4--4-4-4/3--3--3--3-3-3-3--3--3----|
E|-----3--3--3-3-3/2--2--2-2-2/1--1--1--1-1-1-1--1--1----|
                              (USE ALTERNATE PICKING HERE) 


vERSE:

e|--------------------------------------------------------|
B|--------------------------------------------------------|
G|--------------------------------------------------------|
D|-----5--5--5--5-4--4--4--4--3--3--3--3-3-3-3--3--3------|      X4
A|-----5--5--5--5-4--4--4--4--3--3--3--3-3-3-3--3--3------|
E|-----3--3--3--3-2--2--2--2--1--1--1--1-1-1-1--1--1------|
                              (USE IT HERE TOO!)


ITS BASICALLY ALL POWERCHORDS, ITS PROBABLY QUITE POSSIBLE TO PLAY THIS SONG HALF ASLEEP!!

BRIDGE:

e|--------------------------------------------------------|
B|--------------------------------------------------------|
G|----7--7--7-7/-9-9-9/-11-11-11/-14-14-14/-17-17-17------|
D|----X--X--X-X/-X-X-X/-X--X--X-/-X--X--X-/-X--X--X-------|
A|----5--5--5-5/-7-7-7/-9--9--9-/-12-12-12/-15-15-15------|
E|--------------------------------------------------------|


INTERLUDE:

e|-------------------------------------------------------|
B|-------------------------------------------------------|
G|-------------------------------------------------------|
D|-----5--5--5-5-5/4--4--4-4-4/3--3--3--3-3-3-3--3--3----|     X2
A|-----5--5--5-5-5/4--4--4-4-4/3--3--3--3-3-3-3--3--3----|
E|-----3--3--3-3-3/2--2--2-2-2/1--1--1--1-1-1-1--1--1----|
                                (ALTERNATE PICKING)

MID-INTRO:
[ Tab from: http://www.guitartabs.cc/tabs/m/misc_your_songs/inside_of_me_tab.html ]
e|--------------------------------------------------------|
B|--------------------------------------------------------|
G|--------------------------------------------------------|
D|--X-X-X-X-X-X-X-X-5X5X5/7--X-X-X-X-X-X-X-X-5X5X5/7------|
A|--X-X-X-X-X-X-X-X-5X5X5/7--X-X-X-X-X-X-X-X-5X5X5/7------|
E|--X-X-X-X-X-X-X-X-3X3X3/5--X-X-X-X-X-X-X-X-5X5X5/5------|

INTERLUDE:

e|-------------------------------------------------------|
B|-------------------------------------------------------|
G|-------------------------------------------------------|
D|-----5--5--5-5-5/4--4--4-4-4/3--3--3--3-3-3-3--3--3----|     X2
A|-----5--5--5-5-5/4--4--4-4-4/3--3--3--3-3-3-3--3--3----|
E|-----3--3--3-3-3/2--2--2-2-2/1--1--1--1-1-1-1--1--1----|
                                (USE ALTERNATE PICKING)

vERSE:

e|--------------------------------------------------------|
B|--------------------------------------------------------|
G|--------------------------------------------------------|
D|-----5--5--5--5-4--4--4--4--3--3--3--3-3-3-3--3--3------|      X3
A|-----5--5--5--5-4--4--4--4--3--3--3--3-3-3-3--3--3------|
E|-----3--3--3--3-2--2--2--2--1--1--1--1-1-1-1--1--1------|
                              (ALTERNATE PICKING)
e|--------------------------------------------------------|
B|--------------------------------------------------------|
G|--------------------------------------------------------|
D|-----5--5--5--5-4--4--4--4--3--3--3--3-3-3-3--3--3------|
A|-----5--5--5--5-4--4--4--4--3--3--3--3-3-3-3--3--3------|
E|-----3--3--3--3-2--2--2--2--1--1--1--1-1-1-1--1--1------|

|-----------------------------PM------------------------|



INTERLUDE:

e|-------------------------------------------------------|
B|-------------------------------------------------------|
G|-------------------------------------------------------|
D|-----5--5--5-5-5/4--4--4-4-4/3--3--3--3-3-3-3--3--3----|     X2
A|-----5--5--5-5-5/4--4--4-4-4/3--3--3--3-3-3-3--3--3----|
E|-----3--3--3-3-3/2--2--2-2-2/1--1--1--1-1-1-1--1--1----|
                                 (ALTERNATE PICKING) 

e|----------------------------------|
B|----------------------------------|
G|--------3----------------5--------|
D|--5-5-5-3-5-5-5-7--7-7-7-5-7-7-7-9|      X2
A|--5-5-5-1-5-5-5-7--7-7-7-3-7-7-7-9|
E|--3-3-3---3-3-3-5--5-5-5-0-5-5-5-7|


THIS SOLOS PRETTY DAMN SUCKEY AND CANT WRITE ONE 2 SAVE MY LIFE, I SUGGEST YOU USE YOUR OWN!


sOLO:


e|---16--17------------16--17------------16h17-----------16h17-17h18---|
B|----------16--17-15---------16--17-18--------16h17-15--------------19|
G|---------------------------------------------------------------------|
D|---------------------------------------------------------------------|
A|---------------------------------------------------------------------|
E|---------------------------------------------------------------------|


e|----------------------------15|
B|----19-19-18-18-17-17-16-16---|
G|------------------------------|
D|------------------------------|
A|------------------------------|
E|------------------------------|




IF U LIKE THIS SONG EMIAL ME AT imonlymale@hotmail.com
Comments