Misc Your Songs - Have A Cry Chords & Tabs

 

Have A Cry Chords & Tabs

Misc Your Songs Chords & Tabs

Version: 1 Type: Tab 0 ratings
1 star 2 stars 3 stars 4 stars 5 stars
comments

Have A Cry Tab

This is the first song I have written.
It is also my first tab.

Intro:
e|------------------------|------------------------|
B|------------------------|------------------------|
G|------------------------|------------------------|
D|-----0-----0-----0-----0|-----0-----0-----0-----0|
A|---0-----0-----0-----0--|---0-----0-----0-----0--|
E|3-----2-----0-----0-----|5-----3-----2-----0-----|

e|------------------------|------------------------|
B|------------------------|------------------------|
G|------------------------|------------------------|
D|-----0-----0-----0------|-----0-----000000000000-|
A|---0-----0-----0--------|---0-----0--00000000000-|
E|4-----5-----4-----6--5-4|3-----2-----00000000000-|

Chorus:
e|------------------------|------------------------|
B|------------------------|------------------------|
G|------------------------|------------------------|
D|-----0-----0-----0-----0|-----0-----0-----0-----0|
A|---0-----0-----0-----0--|---0-----0-----0-----0--|
E|3-----2-----0-----0-----|5-----3-----2-----0-----|

e|------------------------|------------------------|
B|------------------------|------------------------|
G|------------------------|------------------------|
D|-----0-----0-----0------|-----0-----0-----0-----0|
A|---0-----0-----0--------|---0-----0-----0-----0--|
E|4-----5-----4-----6--5-4|3-----2-----0-----0-----| X2

Verse:
e|------------------------|------------------------|
B|------------------------|------------------------|
G|------------------------|------------------------|
D|-----0-----0-----0-----0|-----0-----0-----0-----0|
A|---0-----0-----0-----0--|---0-----0-----0-----0--|
E|3-----3-----3-----3-----|2-----2-----2-----2-----|
[ Tab from: http://www.guitartabs.cc/tabs/m/misc_your_songs/have_a_cry_tab.html ]
e|------------------------|------------------------|
B|------------------------|------------------------|
G|------------------------|------------------------|
D|-----0-----0-----0-----0|-----0-----0-----0-0-0-0|
A|---0-----0-----0-----0--|---0-----0-----0---0-0-0|
E|3-----3-----3-----3-----|2-----2-----2------2-2-2| X2

Bridge:
{~~~~~~~~~~~~~~~~~~~~~~~~PM~~~~~~~~~~~~~~~~~~~~~~~~}
e|------------------------|------------------------|
B|------------------------|------------------------|
G|------------------------|------------------------|
D|-----0-----0-----0-----0|-----0-----0-----0-----0|
A|---0-----0-----0-----0--|---0-----0-----0-----0--|
E|3-----2-----0-----0-----|5-----3-----2-----0-----|
{~~~~~~~~~~~~~~~~~~~~~~~~PM~~~~~~~~~~~}(-----------) <--- Slowly go off PM.
e|------------------------|------------------------|
B|------------------------|------------------------|
G|------------------------|------------------------|
D|-----0-----0-----0------|-----0-----000000000000-|
A|---0-----0-----0--------|---0-----0--00000000000-|
E|4-----5-----4-----6--5-4|3-----2-----00000000000-|

End:
e|------------------------|------------------------|
B|------------------------|------------------------|
G|------------------------|------------------------|
D|-----0-----0-----0-----0|-----0-----0-----0-----0|
A|---0-----0-----0-----0--|---0-----0-----0-----0--|
E|15----14----12----12----|17----15----14----12----|

e|------------------------|------------------------|
B|------------------------|------------------------|
G|------------------------|------------------------|
D|-----0-----0-----0------|-----0-----0-----0-----0|
A|---0-----0-----0--------|---0-----0-----0-----0--|
E|16----17----16----181716|15----14----12-----12---| X2

Intro
Chorus
Verse
Chorus
Verse
Chorus
Bridge
Chorus
Bridge
End
Bridge
Comments