Misc Your Songs - Good Song Chords & Tabs

 

Good Song Chords & Tabs

Misc Your Songs Chords & Tabs

Version: 1 Type: Tab 0 ratings
1 star 2 stars 3 stars 4 stars 5 stars
comments

Good Song Tab

   
e|--------------------------------------------------------3-|
B|---0-1-1-0------------------1-------1--------1-1-0h1----3-|
G|--0---0----0------------------2------2p0-----0------0---0-|
D|-2-----------2-0-0h2h3----------2--------2---2-------2--0-|
A|3----------------------3-2-0------0--------3----------3-2-|
E|--------------------------------------------------------3-|

these are the chords to play a long with it on a second guitar
they go directly under the first verse under the notes where you hit them
[ Tab from: http://www.guitartabs.cc/tabs/m/misc_your_songs/good_song_tab.html ]
  C      C                   Am      Am/C     C          G
e|0------0-------------------0-------0--------0----------3-|
B|1------1-------------------1-------1--------1----------3-|
G|0------0-------------------2-------2p0------0----------0-|
D|2------2-------------------2-------2--------2----------0-|
A|3------3-------------------0-------0h3------3----------2-|
E|-------------------------------------------------------3-|

This is the rest of  the song

e|-0---0-0------|    e|3----------1-----0-----0-0-|
B|-1---1-1-3-1-0|    B|3---------1-----1-----0--0-|
G|-0---0-0-0-0-0|    G|0--------3-----2-----0---0-|
D|-2---2-2-2-2-2|    D|0-------4-----2-----2----0-|
A|-3---3-3------|    A|2------4-----0-----2-----0-|
E|--------------| x8 E|3(x4)-1-----------0------0-|
Comments