Misc Your Songs - Giles Meikel - School Stinks Chords & Tabs

 

Giles Meikel - School Stinks Chords & Tabs

Misc Your Songs Chords & Tabs

Version: 1 Type: Tab 0 ratings
1 star 2 stars 3 stars 4 stars 5 stars
comments

Giles Meikel - School Stinks Tab

   
I dont have any members other than myself in my band, so i guess im a one man band.
Im going to record this song and make it into a cd. this is a remake of an earlier
song i wrote called "school is hard", which was all on acoustic.  The reason im
submitting this is so all my firends can see it and learn to play it.  I will eventually
write a drum part for it, so it will sound amazing.  I have also included the lyrics.
Thanks for looking.


Meikel Giles
School stinks
Guitar tab
Intro

Guitar 1(acoustic)4x
E-----0000000000-----0000000000-----0000000000-----000000000|
B-----0000000000-----0000000000-----0000000000-----000000000|
G-4-4-4444444444-6-6-6666666666-2-2-2222222222-----000000000|
D-4-4------------6-6------------2-2------------2-2----------|
A-2-2------------4-4------------0-0------------2-2----------|
E----------------------------------------------0-0----------|

Guitar 2(electric, semi-clean)3x come in second time
E--------------------------------------------------------|
B--------------------------------------------------------|
G-4xx4xx4xx4xx4-6xx6xx6xx6xx6-2xx2xx2xx2xx2--------------|
D-4xx4xx4xx4xx4-6xx6xx6xx6xx6-2xx2xx2xx2xx2-2xx2xx2xx2xx2|
A-2xx2xx2xx2xx2-4xx4xx4xx4xx4-0xx0xx0xx0xx0-2xx2xx2xx2xx2|
E-------------------------------------------0xx0xx0xx0xx0|


Verse

Guitar 1(electric, overdrive) 4x
E--------------------------------------------------|
B--------------------------------------------------|
G--------------------------------------------------|
D--------------------------------------------------|
A----12---12---12---12-----12-----12-----12-----12-|
E-9-9--9-9--9-9--9-9--10-10--10-10--10-10--10-10---|

Guitar 1 (continued)
-------------------------------------------------|
-------------------------------------------------|
-------------------------------------------------|
-------------------------------------------------|
----9---9---9---9---7---7---7---7-5555-----------|
-7-7-7-7-7-7-7-7-5-5-5-5-5-5-5-5--3333-----------|
[ Tab from: http://www.guitartabs.cc/tabs/m/misc_your_songs/giles_meikel_school_stinks_tab.html ]
Guitar 2 (semi-clean ,comes in second time) 3x
E------------------------------------------------|
B------------------------------------------------|
G------------------------------------------------|
D------------------------------------------------|
A-12-12-12-12-12-12-12-12-9-9-9-9-7-7-7-7-5-5-5-5|
E-9--9--9--9--10-10-10-10-7-7-7-7-5-5-5-5-3-3-3-3|

Repeat intro


Chorus: guitar 1 only(distortion) 2x
E-----------------|
B-----------------|
G--6-7-2-9--------|
D--6-7-2-9--------|
A--4-5-0-7--------|
E-----------------|


Bridge: guitar 1 only (distortion) 2x

E-------------------|
B-------------------|
G-6-76-24-9---------|
D-6-76-24-9---------|
A-4-54-02-7---------|
E-------------------|

Ending: guitar 1


Guitar 1(electric, overdrive) 4x
E--------------------------------------------------|
B--------------------------------------------------|
G--------------------------------------------------|
D--------------------------------------------------|
A----12---12---12---12-----12-----12-----12-----12-|
E-9-9--9-9--9-9--9-9--10-10--10-10--10-10--10-10---|

Guitar 1 (continued)
-------------------------------------------------|
-------------------------------------------------|
-------------------------------------------------|
-------------------------------------------------|
----9---9---9---9---7---7---7---7-5555-----------|
-7-7-7-7-7-7-7-7-5-5-5-5-5-5-5-5--3333-----------|

Guitar 2 (semi-clean, comes in second time) 3x
E------------------------------------------------|
B------------------------------------------------|
G------------------------------------------------|
D------------------------------------------------|
A-12-12-12-12-12-12-12-12-9-9-9-9-7-7-7-7-5-5-5-5|
E-9--9--9--9--10-10-10-10-7-7-7-7-5-5-5-5-3-3-3-3|
End on
---
---
---
-2-
-2-
-0-
Verse 1

What's the point of waking up, when you have to go to school, where you're bored to
death, and there's nothing fun to do? We learn the same old things in the exact same
classroom over and over again. Now does that make sense to you?


Chorus

Today's the same as any day. I really wanna get away. So why should I get up today?
There's really no point anyway.

Verse 2

 While were sitting at school... we follow lots of rules, and that makes it twice as
boring as sitting in your room, goofin off and screwing around, that would be so cool,
24-7,365, sound like fun to you?

Repeat Chorus

Bridge

I don't wanna go to school, you don't wanna go to school, no one wants to go to school,
so tell me: what's the point?

Repeat Chorus
Comments