Misc Your Songs - Edgehead7 - Sarahs Song Chords & Tabs

 

Edgehead7 - Sarahs Song Chords & Tabs

Misc Your Songs Chords & Tabs

Version: 1 Type: Tab 0 ratings
1 star 2 stars 3 stars 4 stars 5 stars
comments

Edgehead7 - Sarahs Song Tab

   
----------------------------------------------------------------------------
			     Sarah's Song - Edgehead7
----------------------------------------------------------------------------
Tabbed by: Edgehead7
Email: guitarman@intrstar.net

Tuning: Standard (EADGBe)
Capo 1st Fret


Intro (Play chord position and pick pattern as shown)
      
       E          G         D           C
e|------0----------3---------2------------0--------------------------------|
B|-----0-0--------0-0-------3-3----------1-1-------------------------------|
G|----1---1------0---0-----2---2--------0---0------------------------------|
D|---2----------0---------0-----00-----2-----2-----------------------------|
A|--2----------2----------------------3------------------------------------|
E|-0----------3------------------------------------------------------------|

       E          G         D           C
e|------0----------3---------2------------0--------------------------------|
B|-----0-0--------0-0-------3-3----------1-1-------------------------------|
G|----1---1------0---0-----2---2--------0---0------------------------------|
D|---2----------0---------0-----00-----2-----2-----------------------------|
A|--2----------2----------------------3------------------------------------|
E|-0----------3------------------------------------------------------------|


Verse 1

       You are the girl that I've come to love   

       E          G          D            C
e|------0-----------3---------2------------0--------------------------------
B|-----0-0---------0-0-------3-3----------1-1-------------------------------
G|----1---1-------0---0-----2---2--------0---0------------------------------
D|---2-----------0---------0-----00-----2-----2-----------------------------
A|--2-----------2----------------------3------------------------------------
E|-0-----------3------------------------------------------------------------


       Your face gleams like it was from heaven above
     
        E          G                    D            C
e|------0-----------3--------------------2------------0---------------------
B|-----0-0---------0-0------------------3-3----------1-1--------------------
G|----1---1-------0---0----------------2---2--------0---0-------------------
D|---2-----------0--------------------0-----00-----2-----2------------------
A|--2-----------2---------------------------------3-------------------------
E|-0-----------3------------------------------------------------------------


  No matter what I say; no matter what I do

       E          G          D            C
e|------0-----------3---------2------------0--------------------------------
B|-----0-0---------0-0-------3-3----------1-1-------------------------------
G|----1---1-------0---0-----2---2--------0---0------------------------------
D|---2-----------0---------0-----00-----2-----2-----------------------------
A|--2-----------2----------------------3------------------------------------
E|-0-----------3------------------------------------------------------------

[ Tab from: http://www.guitartabs.cc/tabs/m/misc_your_songs/edgehead7_sarahs_song_tab.html ]
  I can't control the fact that I want to be with you
 
      E                G          D               C
e|------0---------------3----------2---------------0------------------------
B|-----0-0-------------0-0--------3-3-------------1-1-----------------------
G|----1---1-----------0---0------2---2-----------0---0----------------------
D|---2---------------0----------0-----00--------2-----2---------------------
A|--2---------------2--------------------------3----------------------------
E|-0---------------3--------------------------------------------------------



Chorus (Strum Chords)

  E				        G
  I will always love the feel of your sweet embrace

  D					C
  I will always love the look on your beautiful face

  E			            G
  And whatever may happen, I will always be your friend

       D		       C	
  And love you like no other until the very end





Verse 2 (Perform same way as verse 1)


     Since the day I met you, I knew you were the one for me

      E               G          D               C
e|------0--------------3----------2---------------0------------------------|
B|-----0-0------------0-0--------3-3-------------1-1-----------------------|
G|----1---1----------0---0------2---2-----------0---0----------------------|
D|---2--------------0----------0-----00--------2-----2---------------------|
A|--2--------------2--------------------------3----------------------------|
E|-0--------------3--------------------------------------------------------|


  From the way  we  kissed each other in perfect   harmony

           E           G                  D            C
e|----------0----------3-------------------2------------0------------------|
B|---------0-0--------0-0-----------------3-3----------1-1-----------------|
G|--------1---1------0---0---------------2---2--------0---0----------------|
D|-------2----------0-------------------0-----00-----2-----2---------------|
A|------2----------2--------------------------------3----------------------|
E|-----0----------3--------------------------------------------------------|



  To the times we held each other,  showing our love so true

          E                  G         D                  C
e|---------0------------------3---------2------------------0----------------
B|--------0-0----------------0-0-------3-3----------------1-1---------------
G|-------1---1--------------0---0-----2---2--------------0---0--------------
D|------2------------------0---------0-----00-----------2-----2-------------
A|-----2------------------2----------------------------3--------------------
E|----0------------------3--------------------------------------------------


  I really hope that you love me the way that I love you.

       E              G               D                C
e|-------0--------------3--------------2----------------0------------------|
B|------0-0------------0-0------------3-3--------------1-1-----------------|
G|-----1---1----------0---0----------2---2------------0---0----------------|
D|----2--------------0--------------0-----00---------2-----2---------------|
A|---2--------------2-------------------------------3----------------------|
E|--0--------------3-------------------------------------------------------|




Chorus (Strum Chords)

  E				        G
  I will always love the feel of your sweet embrace

  D					C
  I will always love the look on your beautiful face

  E			            G
  And whatever may happen, I will always be your friend

       D		       C			E
  And love you like no other until the very end





End on E and that's it! Hope this tab helps some people out there.

This song is dedicated to Sarah Jorgensen.
Comments