Misc Your Songs - Adam - Cool Solo Chords & Tabs

 

Adam - Cool Solo Chords & Tabs

Misc Your Songs Chords & Tabs

Version: 1 Type: Tab 0 ratings
1 star 2 stars 3 stars 4 stars 5 stars
comments

Adam - Cool Solo Tab

Cool Solo
-------------------------------------------------------------------------------

Tabbed by: Adam
Email: dooty_7@hotmail.com

First solo dont care if you think its bad only email for good stuff

e|----12--14--13--15-------15--13--14--12-------|X2
B|----------------------------------------------|
G|----------------------------------------------|
D|----------------------------------------------|
A|----------------------------------------------|
E|----------------------------------------------|

e|----12--14--13--15------------------------------------15--13--14--12|
B|---------------------------(18-20-19-21)do 4 times------------------|
G|--------------------------------------------------------------------|
D|--------------------------------------------------------------------|
A|--------------------------------------------------------------------|
E|--------------------------------------------------------------------|

e|---12h13----13h14----14h15----15h16----------------------------------------|
B|-----------------------------------------15h16----14h15----13h14----12h13--|
G|---------------------------------------------------------------------------|
D|---------------------------------------------------------------------------|
A|---------------------------------------------------------------------------|
E|---------------------------------------------------------------------------|
[ Tab from: http://www.guitartabs.cc/tabs/m/misc_your_songs/adam_cool_solo_tab.html ]
e|----12h13--12h14--12h15-----12h13--12h14--12h14--------|
B|-------------------------------------------------------|
G|-------------------------------------------------------|
D|-------------------------------------------------------|
A|-------------------------------------------------------|
E|-------------------------------------------------------|

e|-12----------16----------20----------18----------14---------|
B|----13----15----17----19----21----19----17----15----13------|
G|-------14----------18----------20----------16----------12---|
D|------------------------------------------------------------|
A|------------------------------------------------------------|
E|------------------------------------------------------------|

e|----13----14----15----16----17----18----19----20----21------|
B|------------------------------------------------------------|
G|-12----13----14----15----16----17----18----19----20----21---|
D|------------------------------------------------------------|
A|------------------------------------------------------------|
E|------------------------------------------------------------|

e|--21-21----21-21----21----21----21-------------------------|
B|--------------------------------21-------------------------|
G|--------21-------21----21----21----------------------------|
D|-----------------------------------------------------------|
A|-----------------------------------------------------------|
E|-----------------------------------------------------------|
Comments