Misc Your Songs - 69 - Revolution Chords & Tabs

 

69 - Revolution Chords & Tabs

Misc Your Songs Chords & Tabs

Version: 1 Type: Tab 0 ratings
1 star 2 stars 3 stars 4 stars 5 stars
comments

69 - Revolution Tab

   
69 - Revolution
Tabbed by: Xavieres
Tuning: B,F#,B,E,G#,C#

This is one of my songs. Please, play it. I think it's a really good song. Both guitars
are with distortion. You can play it in guitar pro or something. If you like it, please,
send me an e-mail: xavieres@telefonica.net

Q = 140

Chorus: x4
Guitar 1:
|----------------|----------------|
|----------------|----------------|
|----------------|----------------|
|0---8---7---0---|3---5---3---2---|
|0---8---7---0---|3---5---3---2---|
|0---8---7---0---|3---5---3---2---|

Guitar 2
|----------------|----------------|
|----------------|----------------|
|7-----------7---|10--12--10--9---|
|7---8---7---7---|10--12--10--9---|
|5---8---7---5---|8---10--8---7---|
|----8---7-------|----------------|


Riff 1: x4
Guitar 1:
|----------------|----------------|
|----------------|----------------|
|----------------|----------------|
|0-7-8-0-7---0-2-|3-0-5-0-3-0-2---|
|----------8-----|--------------3-|
|----------------|----------------|

Guitar 2:
|----------------|----------------|
|----------------|----------------|
|----------------|----------------|
|----------------|----------------|
|----------------|----------------|
|0-0-8-8-7-7-0-0-|3-3-5-5-3-3-2-2-|


Riff 2: x4
Guitar 1:
|----------------|----------------|
|----------------|----------------|
|----------------|----------------|
|0-7-8-0-5-7-0-2-|3-0-5-0-3-0-2---|
|----------------|--------------3-|
|----------------|----------------|

Guitar 2:
|----------------|----------------|
|----------------|----------------|
|----------------|----------------|
|----------------|----------------|
|----------------|----------------|
|0-0-8-8-7-7-0-0-|3-3-5-5-3-3-2-2-|


Riff 3:
Guitar 1:
|----------------|----------------|  |----------------|----------------|
|----------------|----------------|  |----------------|----------------|
|----------------|----------------|  |----------------|----------------|
|0-7-8-0-7-8-0-7-|8-0-7-8-7-------|  |0-7-8-0-7-8-0-7-|8-------7-------|
|----------------|----------8-7---|  |----------------|----------8-7---|
|----------------|--------------10|  |----------------|--------------10|
\________________________________/
 ________________x3______________
/                                \
Guitar 2:
|----------------|----------------|  |----------------|----------------|
|----------------|----------------|  |----------------|----------------|
|----------------|----------------|  |----------------|----------------|
|----------------|----------------|  |----------------|----------------|
|----------------|----------------|  |----------------|----------------|
|0-0-8-8-7-7-8-8-|7-7-8-8-3-3-2-2-|  |0-0-8-8-7-7-8-8-|8-------3-3-2-2-|


(Repeat Chorus: x4)
(Repeat Riff 1: x4)
(Repeat Riff 2: x4)
(Repeat Riff 3: x1)
(Repeat Chorus: x4)
(Repeat Riff 1: x4)

[ Tab from: http://www.guitartabs.cc/tabs/m/misc_your_songs/69_revolution_tab.html ]
Riff 4: x2
Guitar 1:
|----17--18----------17------15--|--------------------------------|
|15--------------15--------------|15--17--18------15--17------13--|
|--------------------------------|--------------------------------|
|--------------------------------|--------------------------------|
|--------------------------------|--------------------------------|
|--------------------------------|--------------------------------|

Guitar 2:
|--------------------------------|--------------------------------|
|--------------------------------|--------------------------------|
|--------------------------------|--------------------------------|
|0-------------------------------|3---------------2---------------|
|0-------------------------------|3---------------2---------------|
|0-------------------------------|3---------------2---------------|


Riff 5: x2
Guitar 1:
|--------------------------------|--------------------------------|
|--------------------------------|--------------------------------|
|----14--15----------14------12--|--------------------------------|
|12--------------12--------------|12--14--15------12--14------10--|
|--------------------------------|--------------------------------|
|--------------------------------|--------------------------------|

Guitar 2:
|--------------------------------|--------------------------------|
|--------------------------------|--------------------------------|
|--------------------------------|--------------------------------|
|0-------------------------------|3---------------2---------------|
|0-------------------------------|3---------------2---------------|
|0-------------------------------|3---------------2---------------|


Riff 6: x2
Guitar 1:
|--------------------------------|--------------------------------|
|--------------------------------|--------------------------------|
|----14------15----------12--14--|--------------------------------|
|12------------------------------|12--14------15----------14--10--|
|--------------------------------|--------------------------------|
|--------------------------------|--------------------------------|

Guitar 2:
|--------------------------------|--------------------------------|
|--------------------------------|--------------------------------|
|--------------------------------|--------------------------------|
|0-------------------------------|3---------------2---------------|
|0-------------------------------|3---------------2---------------|
|0-------------------------------|3---------------2---------------|


Riff 7: x2
Guitar 1:
|--------------------------------|--------------------------------|
|--------------------------------|--------------------------------|
|--------------------------------|--------------------------------|
|0---7-------8-----------5---7---|0---2-------3-----------2-------|
|--------------------------------|----------------------------3---|
|--------------------------------|--------------------------------|

Guitar 2:
|--------------------------------|--------------------------------|
|--------------------------------|--------------------------------|
|--------------------------------|--------------------------------|
|0-------------------------------|3---------------2---------------|
|0-------------------------------|3---------------2---------------|
|0-------------------------------|3---------------2---------------|


(Repeat Riff 3: x1)
(Repeat Chorus: x8)
Comments