Misc Wwf - Cactus Jack Theme Chords & Tabs

 

Cactus Jack Theme Chords & Tabs

Misc Wwf Chords & Tabs

Version: 1 Type: Tab 0 ratings
1 star 2 stars 3 stars 4 stars 5 stars
comments

Cactus Jack Theme Tab

Cactus Jack's Entrance Music

Standard E Tuning

I've always liked this song because it sounds really cool so
I decided to tab it and I did my best and it sounds pretty good.

E-------------------------------|
B-------------------------------|
G----------------------------3~-|
D-----------0-3~-----------0----|
A-3h5-5\3-0-0----3h5-5\3-0-0----|
E-------------------------------|

E-------------|------------------|
B-------------|-------------3/5~-|
G-7-----------|-1-3/4\3-1-0------|
D-7-9-x-7-7-5-|------------------|
A-5-7-x-5-5-3-|------------------|
E-------------|------------------|
[ Tab from: http://www.guitartabs.cc/tabs/m/misc_wwf/cactus_jack_theme_tab.html ]
E-------------|----------|
B-------------|----------|
G-7-----------|-3/5b-3---|
D-7-9-x-7-7-5-|--------1-|
A-5-7-x-5-5-3-|----------|
E-------------|----------|

E-------------|--------|
B-------------|--------|
G-7-----------|-5p3~-5-|
D-7-9-x-7-7-5-|--------|
A-5-7-x-5-5-3-|--------|
E-------------|--------|

E-------------|---------------------|
B-------------|-----------------1-3-|
G-7-----------|-7-7-9-7-5h7p5-3-----|
D-7-9-x-7-7-5-|---------------------|
A-5-7-x-5-5-3-|---------------------|
E-------------|---------------------|

E-------------|------------------------|
B-------------|------------------------|
G-7-----------|-9b-7h9p7-5h7p5-3h5p3-0-|
D-7-9-x-7-7-5-|------------------------|
A-5-7-x-5-5-3-|------------------------|
E-------------|------------------------|
Comments