Misc Video Games - Starfox 64 End Theme Chords & Tabs

 

Starfox 64 End Theme Chords & Tabs

Misc Video Games Chords & Tabs

Version: 1 Type: Tab 1 rating
1 star 2 stars 3 stars 4 stars 5 stars
comments

Starfox 64 End Theme Tab

 StarFox 64 Ending Theme 

This is only part of it so it is not complete

E|--------------15----14----15-14-15-14--------------12--10-12-10-12-10------|
B|--------------------------------------15------------------------------12---|
G|--------12-------------------------------14----12------------------------11|
D|---------------------------------------------------------------------------|
A|---------------------------------------------------------------------------|
E|---------------------------------------------------------------------------|

[ Tab from: http://www.guitartabs.cc/tabs/m/misc_video_games/starfox_64_end_theme_tab.html ]
E|------------15----14----15-14-15-14------17---------------------------------------|
B|-----------------------------------15-------12-13-13-12-13-13-12-13-13-12-13-15-15|
G|-------12----------------------------14-------------------------------------------|
D|----------------------------------------------------------------------------------|
A|----------------------------------------------------------------------------------|
E|----------------------------------------------------------------------------------|


This is the song that plays after you beat Andross and while the credits are rolling.
Comments