Misc Video Games - Smw Game Select Screen Chords & Tabs

 

Smw Game Select Screen Chords & Tabs

Misc Video Games Chords & Tabs

Version: 1 Type: Tab 1 rating
1 star 2 stars 3 stars 4 stars 5 stars
comments

Smw Game Select Screen Tab

Super Mario World - Game Select Screen
Composed by Koji Kondo
Tabbed by springwaffle

Just a variation of the original Overworld theme.

  Melody
e-3-2-1---0--------------3-2-1---0----5-4-3-----
b-------4-------1---1-3--------4------------6-7-
g-----------1-2---2----------------2------------
d-----------------------------------------------
a-----------------------------------------------
e-----------------------------------------------
[ Tab from: http://www.guitartabs.cc/tabs/m/misc_video_games/smw_game_select_screen_tab.html ]
e-------------10-12--12-12-13-12-10---------
b-10-13-10-13-----------------------12-10-9-
g-------------------------------------------
d-------------------------------------------
a-------------------------------------------
e-------------------------------------------

  Bass
g--------0--------0------0-5------2-5------2-5--------5-0--0--0--0-
d------2---0--0-3---2--2-----3--3-----4--4-----0--0-4--------------
a-3--3-------------------------------------------------------------
e------------------------------------------------------------------
Comments