Misc Video Games - Legend Of Zelda Chords & Tabs

 

Legend Of Zelda Chords & Tabs

Misc Video Games Chords & Tabs

Version: 1 Type: Tab 9 ratings
1 star 2 stars 3 stars 4 stars 5 stars
comments

Legend Of Zelda Tab

The Legend Of Zelda Title Screen Music

|--------------------------------------------------------------------|
|-11-------------11----------------11-------------11-----------------|
|----------10-10----13-11-13----------------11-11----14-12-14--------|
|--------------------------------------------------------------------|
|--------------------------------------------------------------------|
|--------------------------------------------------------------------|

|----------------------------------|
|----------------------------------|
|----------------------------------|
|----------------------------------|
|----------------------------------|
|-9---------------9----------------|

|-----------------------------11-13--------------------|
|-11------------11---11-13-15--------------------------|
|------10----------------------------------------------| X 3
|------------------------------------------------------|
|------------------------------------------------------|
|------------------------------------------------------|

|-13--13--14--16--18------------18--18--16--14--16-----14-13-------|
|------------------------------------------------------------------|
|------------------------------------------------------------------|
|------------------------------------------------------------------|
|------------------------------------------------------------------|
|------------------------------------------------------------------|

|-13---11---11-13-14------------13---11---9---9-11-13--------------|
|------------------------------------------------------------------|
|------------------------------------------------------------------|
|------------------------------------------------------------------|
|------------------------------------------------------------------|
|------------------------------------------------------------------|
[ Tab from: http://www.guitartabs.cc/tabs/m/misc_video_games/legend_of_zelda_tab.html ]
|-11---9---8---8-10-12----------15-------13-------------------------|
|-------------------------------------------------------------------|
|---------------------------------------------10-10-10---10-10-10---|
|-------------------------------------------------------------------|
|-------------------------------------------------------------------|
|-------------------------------------------------------------------|

|---------------------------------------------11-13----------------|
|-----------------11------------11---11-13-15----------------------|
|-10-10-10---10--------10------------------------------------------|
|------------------------------------------------------------------|
|------------------------------------------------------------------|
|------------------------------------------------------------------|

|-13---13--14--16------21---20---17---------------------18---17---|
|-----------------------------------------18---19-----------------|
|-----------------------------------------------------------------|
|-----------------------------------------------------------------|
|-----------------------------------------------------------------|
|-----------------------------------------------------------------|

|------------------------18---17--------------------------14---13-|
|-18-------18---19-----------------18-------15---16---------------|
|-----------------------------------------------------------------|
|-----------------------------------------------------------------|
|-----------------------------------------------------------------|
|-----------------------------------------------------------------|

|--------------------------12---15---13-------------------------|
|-14-------11---13---13-15--------------------------------------|
|-----------------------------------------10-10-10---10-10-10---|
|---------------------------------------------------------------|
|---------------------------------------------------------------|
|---------------------------------------------------------------|

|------------------------------------------------------------------|
|------------------------------------------------------------------|
|-10-10-10---10----------------------------------------------------|
|------------------------------------------------------------------|
|------------------------------------------------------------------|
|------------------------------------------------------------------|

Enjoy playing this, it took me a while to get :-)
Comments