Misc Video Games - Legend Of Zelda Dungeon Chords & Tabs

 

Legend Of Zelda Dungeon Chords & Tabs

Misc Video Games Chords & Tabs

Version: 1 Type: Tab 2 ratings
1 star 2 stars 3 stars 4 stars 5 stars
comments

Legend Of Zelda Dungeon Tab

The Legend of Zelda - Dungeon
Tabbed by springwaffle

        x4        x4        x4        x4        x4        x4
e---------|---------|---------|---------|---------|---------
b-----3-4-|-----3-4-|-----3-4-|-----3-4-|-----1-3-|-----1-3-
g-0-3-----|---2-----|---------|---------|---0-----|---0-----
d---------|-4-------|-3-6-----|-2-5-----|-1-------|-0-------
a---------|---------|---------|---------|---------|---------
e---------|---------|---------|---------|---------|---------
[ Tab from: http://www.guitartabs.cc/tabs/m/misc_video_games/legend_of_zelda_dungeon_tab.html ]
e---------------------------2---2-5-2-5-8-
b-------1-----1-4---1-4-1-4---4-----------
g-----2-----2-----2-----------------------
d---4-----4-------------------------------
a-3---------------------------------------
e-----------------------------------------

Bass:
e--------------------------------------------------------------
b-------3--2-------------2-1----------------4-3------------3-2-
g-0--3----------------1------------------0--------------0------
d-------------4---3----------2---1p0h1----------0---0----------
a-------------------------------------------------4------------
e--------------------------------------------------------------

e-----------------------2-5-2-------------
b-----------1---1-4-1-4-------4-1-4-1-----
g-----2---2---2-----------------------2---
d-0-4---4-------------------------------4-
a-----------------------------------------
e-----------------------------------------
Comments