Misc Video Games - Ice Climber Title Screen Chords & Tabs

 

Ice Climber Title Screen Chords & Tabs

Misc Video Games Chords & Tabs

Version: 1 Type: Tab 1 rating
1 star 2 stars 3 stars 4 stars 5 stars
comments

Ice Climber Title Screen Tab

Ice Climber - Title Screen
Tabbed by springwaffle

From the awesomely badass NES game.

e---------------------------------------------------------
b-1--1p0h1p0h1--1-4--1------------1--1--1-1-4--1----------
g-----------------------0-3p0h3-------------------0-3p0h3-
d---------------------------------------------------------
a---------------------------------------------------------
e---------------------------------------------------------
[ Tab from: http://www.guitartabs.cc/tabs/m/misc_video_games/ice_climber_title_screen_tab.html ]
e------------------------------------2-1---------------------
b-1-----4--3-1---------------------1-----3-1-----------------
g----2---------3-0-----------0-1-2-----------3-0-------------
d------------------4-3-1-2-----------------------4-3-1---1-3-
a------------------------------------------------------3-----
e------------------------------------------------------------

e-------------------------3--1---------------------------------------------
b-------------2-3-3-2-3-3-------4-1--1--1----------------------------0---0-
g---0-0---0-0--------------------------------------0---0-1-0-1-2-1-2---2---
d-4-----4---------------------------------2--3--4----4---------------------
a--------------------------------------------------------------------------
e--------------------------------------------------------------------------

Corrections/comments/etc. can be sent to: springwaffle@comcast.net
Comments