Misc Video Games - Final Fantasy Battle Chords & Tabs

 

Final Fantasy Battle Chords & Tabs

Misc Video Games Chords & Tabs

Version: 1 Type: Tab 2 ratings
1 star 2 stars 3 stars 4 stars 5 stars
comments

Final Fantasy Battle Tab

This tab i created by myself im not positive this is how it is but i tried.

this battle song plays when you are laguna in final fantasy 8.

e|------------------------------------------------------
a|------------------------------------------------------
d|------------------------------------------------------
g|--3--5--7--3--5--7--3--5--4--3--5--7--3--5--7--4--9--8
b|--3--5--7--3--5--7--3--5--4--3--5--7--3--5--7--4--9--8
e|--1--3--5--1--3--5--1--3--2--1--3--5--1--3--5--2--7--6


e|------------------------------------------------------
a|------------------------------------------------------
d|--3--5--7--3--5--7--3--5--4--3--5--7--3--5--7--4--9--8
g|--3--5--7--3--5--7--3--5--4--3--5--7--3--5--7--4--9--8
b|--1--3--5--1--3--5--1--3--2--1--3--5--1--3--5--2--7--6
e|------------------------------------------------------
[ Tab from: http://www.guitartabs.cc/tabs/m/misc_video_games/final_fantasy_battle_tab.html ]
e|------------------------------------------------------
a|--3--5--7--3--5--7--3--5--4--3--5--7--3--5--7--4--9--8
d|--3--5--7--3--5--7--3--5--4--3--5--7--3--5--7--4--9--8
g|--1--3--5--1--3--5--1--3--2--1--3--5--1--3--5--2--7--6
b|------------------------------------------------------
e|------------------------------------------------------


e|--3--5--7--3--5--7--3--5--4--3--5--7--3--5--7--4--9--8
a|--3--5--7--3--5--7--3--5--4--3--5--7--3--5--7--4--9--8
d|--1--3--5--1--3--5--1--3--2--1--3--5--1--3--5--2--7--6
g|------------------------------------------------------
b|------------------------------------------------------
e|------------------------------------------------------


If you are a basist you can also play this but change from first to second and second to first
string every once and a while. if you are a drummer just keep beating the base drum in a four 
four time, you'll get used to the timing
Comments