Misc Video Games - Doom E2m3 Intermission Chords & Tabs

 

Doom E2m3 Intermission Chords & Tabs

Misc Video Games Chords & Tabs

Version: 1 Type: Tab 1 rating
1 star 2 stars 3 stars 4 stars 5 stars
comments

Doom E2m3 Intermission Tab

   
Doom - e2m3, intermission
Tabbed by springwaffle
[ Tab from: http://www.guitartabs.cc/tabs/m/misc_video_games/doom_e2m3_intermission_tab.html ]
  Intro
e---------------------------
b---------------------------
g---------------------------
d-------------------------2-
a-------------------------2-
e-0-0-0-0-0-0-0-0-0-0-0-0-0-
  pm.....................
                                        _________________________________
  Pattern 1                            | 1
e|------------------------------------|----------------------------------|
b|*-----------------------------------|---------------------------------*|
g|------------------------------------|----------------------------------|
d|------------------------------------|----------------------------------|
a|*-----------------------1---0-------|-----------------------1---0-----*|
e|--0-0-3-0--0-0-2-0--0-0---0---0-3-0-|-0-0-3-0--0-0-2-0--0-0---0---0-3--|
  ______^_____________________________
 | 2                                 
e-------------------------------------
b-------------------------------------
g-------------------------------------
d-------------------------------------
a-----------------------1---0---------
e-0-0-3-0--0-0-2-0--0-0---0---0-3-0-2-
                                          _________________________________
  Pattern 2                              | 1
e|--------------------------------------|----------------------------------|
b|*-------------------------------------|---------------------------------*|
g|--------------------------------------|----------------------------------|
d|--------------------------------------|----------------------------------|
a|*-------1--------3--------4---3---1---|-----1--------3--------4---3---1-*|
e|--(3)-3---3--3-3---3--3-3---3---3---3-|-3-3---3--3-3---3--3-3---3---3----|
  _______________________________________
 | 2
e----------------------------------------
b---------------------------------------- 
g---------------------------------------- 
d---------------------------------------- go back to Pattern 1
a------1--------3--------4---3---1------- starting on the ^ note
e--3-3---3--3-3---3--3-3---3---3---1-1-2- replace the 2 with:

e-----------------------------------------
b-----------------------------------------
g----------------------------------------- rest til after
d---------------------------------------2- bridge, then back to
a-----------------------1---0-----------2- Pattern 1
e-0-0-3-0--0-0-2-0--0-0---0---0-3-0-0-0-0-

Second bridge:
e-------------------------------------------------------
b-------------------------------------------------------
g--------------2--------3-0-----------------------------
d-0-4-0-2----4---4-2--------4-------------------------2- back to Pattern 1
a-----------------------------------------------------2-
e-----------------------------0-0-0-0-0-0-0-0-0-0-0-0-0-
                              pm.....................

(3) = that note isn't played the first time coming from
pattern 1

Corrections/comments/etc. can be sent to: springwaffle@comcast.net
Comments