Misc Video Games - Doom E1m Chords & Tabs

 

Doom E1m Chords & Tabs

Misc Video Games Chords & Tabs

Version: 1 Type: Tab 1 rating
1 star 2 stars 3 stars 4 stars 5 stars
comments

Doom E1m Tab

   
Doom - e1m2
Tabbed by springwaffle

e---|-----
b---|-----
g---|-----
d---|-----
a---|-----
e-2-|-0-2-  
                                 ________  _____  ______
       *                        | 1 & 3   | 2    | 4
e---|--------------------------|---------|------|-------
b---|*-------------------------|--------*|------|-------
g---|--------------------------|---------|------|-------
d---|--------------------------|---------|------|-------
a---|*-------------------------|--------*|------|-------
e-0-|--2---2---2---2-0--2-2--2-|-2-2--0--|-2--0-|-0-2-0-
                              _______  _____
                             | 1      | 2
e|--------------------------|--------|------
b|*-------------------------|-------*|------
g|--------------------------|--------|------
d|--------------------------|--------|------
a|*-2---2---2---2-0--2-2--2-|-0-2-0-*|-0--2-
e|--------------------------|--------|------
[ Tab from: http://www.guitartabs.cc/tabs/m/misc_video_games/doom_e1m_tab.html ]
e---------------------------------------------------------------
b---------------------------------------------------------------
g---------------------------------------------------------------
d---------------------------------------------------------------
a---------------------------------------------------------------
e-2---2---2---2-0---2--2-2-0-2--2---2---2-0-2---2-0-2-0-2-0-2-0-

e-----------------------------------------------------------
b-----------------------------------------------------------
g-----------------------------------------------------------
d-----------------------------------------------------------
a-4-4--4--4--2--4---4---4--4-2-2-2--2--2--0--2---2---2--2-0-
e-----------------------------------------------------------

e------------------------------------------------------------
b------------------------------------------------------------
g------------------------------------------------------------
d------------------------------------------------------------
a-----------------------------------------------4---4--4-4-4-
e-2-2--2-2-0-2--2---2---2-0-2--2---2---2---2-----------------

Go to the * and repeat as many times as you want.
I tried my best to get the rhythm right. I'm sure you can figure
it out from listening to the song.

Corrections/comments/etc. can be sent to: springwaffle@comcast.net
Comments