Misc Video Games - Contra Stage Chords & Tabs

 

Contra Stage Chords & Tabs

Misc Video Games Chords & Tabs

Version: 1 Type: Tab 0 ratings
1 star 2 stars 3 stars 4 stars 5 stars
comments

Contra Stage Tab

Contra - Stage 1 (Jungle)
Tabbed by springwaffle

Also Stage 7 (Hangar).

e-1-------------------------------
b---4-1---1-----------------------
g-------3---3-1-0-1-0-------------
d---------------------3-1-3---1-2-
a---------------------------3-----
e---------------------------------

    S
e|-------------------------------------|
b|*------------3-4--------------3-----*|
g|-------5-3-5------------5-3-5--------|
d|--3----------------3------------6----|
a|*-----------------------------------*|
e|-------------------------------------|

e------------------------------------------------6------10-8-6------------------------
b-----3-4-4--3-3-4-6-6-4h6------3-4-4--3-3-4--6-----8-6--------10-8-6-8-6-------------
g-5-5-----------------------5-5-------------------------------------------7-5-7-5-----
d---------------------------------------------------------------------------------8-7-
a-------------------------------------------------------------------------------------
e-------------------------------------------------------------------------------------

e-------------------------------------------------------------------
b-------------------------------------------------3-1---------------
g----------0-----------------------------0--0-2-3-------------------
d------0-1---3-1-0----------------0--1-3------------------3-5p3h5---
a-3--3-------------1-3-----0--1-3---------------------3-6---------3-
e-------------------------------------------------------------------
                                                                                *
e--------------------------------------------------------------------------------
b-----------------------------------------------3----------------------------3-1-
g----------3p2h3p2---------------------3p2h3-5------------------0-0-0--0-2-3-----
d-----3-5----------3-5p3h5--------3-5--------------------0--1-3------------------
a-3-6----------------------3--3-6-----------------0--1-3-------------------------
e--------------------------------------------------------------------------------
[ Tab from: http://www.guitartabs.cc/tabs/m/misc_video_games/contra_stage_tab.html ]
e---------------------------------------------------------------------
b------------------------------------------------------------1h3p1----
g-3333-333-3-3-2--0000-000-0-0-2--3333-333-3-3-2--0000-0h2h3-------2--
d---------------------------------------------------------------------
a---------------------------------------------------------------------
e---------------------------------------------------------------------

e-------------------------------------------------1111-1111---
b-3333-333-3-3-1---------------1--3333-333-3-3-4--------------
g-----------------3333-333-3-3--------------------------------
d-------------------------------------------------------------
a-------------------------------------------------------------
e-------------------------------------------------------------

e-------------------------------------------------------------
b-------------------------------------------------------------  
g----------------------------3--3p2h3-----------------0--2--3-  D.S. al Coda
d-----3-5p3h5--------3-5p3h5----------5p3h5--------3----------
a-3-6---------3--3-6------------------------3--3-6------------
e-------------------------------------------------------------

 * CODA
e----------------------------------------------------------------
b----------------------------------------------------------------
g-3333-333-3-3-2--0000-000-0-0-2--3333-333-3-3-2--0000-000-0-0-2-
d----------------------------------------------------------------
a----------------------------------------------------------------
e----------------------------------------------------------------

e----------------------------------------------------------------------
b------------------1-1-------------------------------------1-3---------
g--------0-2-3-2-3-----3-2---0-0------2-0-0--------------3-------------
d-3----3-------------------3------0-3-------3-1-------0----------3-4-5-
a-------------------------------------------------1-3------------3-4-5-
e----------------------------------------------------------------1-2-3-


D.S. al Coda = go to the S, play til the *, go to * CODA.

Numbers smudged together like '3333' are meant to be played faster than the notes
with one dash in between. Not the 3333th fret. If you know the game, you know what I mean.

Corrections/comments/etc. can be sent to: springwaffle@comcast.net
Comments