Misc Unsigned Bands - White Shadow - Empty Chords & Tabs

 

White Shadow - Empty Chords & Tabs

Misc Unsigned Bands Chords & Tabs

Version: 1 Type: Tab 0 ratings
1 star 2 stars 3 stars 4 stars 5 stars
comments

White Shadow - Empty Tab

Hey guys and gals my name is timmy and i like made this song up.
Well its not that good because i made it up when i broke maa hand .
Well enjoy . 
Any questions email me at funny_bones35@hotmail.com

----------|--------|-----------|
----------|--------|-----------|   Do that about 2 times
---2-2-22-|-1-1-11-|-6-6-66664-|
---0-0-00-|-0-0-00-|-0-7-00000-|
---0-0-00-|-0-0-00-|-0-0-00000-|
---3-3-33-|-2-2-22-|-7-7-77775-|
[ Tab from: http://www.guitartabs.cc/tabs/m/misc_unsigned_bands/white_shadow_empty_tab.html ]
--x-x-x-xx-------|x-x-x-xx---------|-x-x-x-xx---------|-x-x-x-xx-x-------|
--x-x-x-xx-------|x-x-x-xx---------|-x-x-x-xx---------|-x-x-x-xx-x-------|
--2-2-2-22----2--|4-4-4-44----4----|-6-6-6-66----6----|-6-6-6-66-4-------|
--0-0-0-00---0---|0-0-0-00---0-----|-0-0-0-00---0-----|-0-0-0-00-0-------|
--0-0-0-00--0----|0-0-0-00--0------|-0-0-0-00--0------|-0-0-0-00-0-------|
--3-3-3-33-3---5-|5-5-5-55-5---7---|-7-7-7-77-7---7---|-7-7-7-77-5-------|
DO THAT ABOUT 2-3 TIMES
than
-----------------|-----------------|------------------|------------------|
-----------------|-----------------|------------------|------------------|
-----------------|-----------------|------------------|------------------|
-----------------|-----------------|------------------|------------------|
-----------------|-----------------|------------------|------------------|
-2-3-333333------|-2-5-5555555-----|-2-7-777777-------|-2-7-777777-5-----|

Good Luck:)
Comments