Misc Unsigned Bands - Wayward Daughter - Class A Chords & Tabs

 

Misc Unsigned Bands Chords & Tabs

Version: 1 Type: Tab 0 ratings
1 star 2 stars 3 stars 4 stars 5 stars
comments

Wayward Daughter - Class A Tab

Class A Tab

Drop D Tuning


Intro & Verses

E -------------------------------------------------------------------------|
B -------------------------------------------------------------------------|
G ---6--------9----------------------6--------9----------------------------|
D ---6-x16----9-x8------9/11\9------6-x16----9-x8------9/11/13-------------|
A ---4--------7----------7/9 \7------4--------7----------7/9 /11-----------|   Repeat
D -------------------------------------------------------------------------|

PM - - - - - - - - --|                        PM - - - - - - -  -|

If love is a drug then I am on morphine…







Pre Chorus

E -----------------------------------------------------------------------------|
B -----------------------------------------------------------------------------|
G -----2---------------------------------------------4-------------------------|
D -----2---x16---------------------------------------4---x14-------------------|
A ---------------------------------------------------2-------------------------|
D -----------------------------------------------------------------------------|

   You control me and you know that you can Cos I’ll drop everything just to prove..






Chorus:
[ Tab from: http://www.guitartabs.cc/tabs/m/misc_unsigned_bands/wayward_daughter_class_a_tab.html ]
E --0--------------------0------------------------0-------------|
B --0--------------------0------------------------0-------------|
G --6--------------------9------------------------9-------------|
D --6--------------------9------------------------7-------------|
A --4--------------------7------------------------7-------------|
D --x--------------------x------------------------7-------------|

    Go now, just let me go now…      Just let me get out

E --------0---0/0---------|
B --------0---0/0---------|
G --------6---6/7---------|      Repeat
D --------6---4/5---------|
A --------4---4/5---------|
D --------x---4/5---------|

Before I break down..





Bridge:

E -------------------------------------                E --------------------------------|
B -------------------------------------                B --------------------------------|
G -------------------------------------               G -9--9/11---8-8/9--6--4--3--------|
D ---7------6-----4-------2------1-----               D -7--7/9----6-6/7--6--4--3--------|
A ---7-x16--6-x16-4-x16---2-x8--1-x8--                A -7--7/9----6-6/7--4--2--1--------|
D ---7------6-----4--------2------1----               D -7--7/9----6-6/7--4--2--1--------|

        PM - - - - - - - - - - - - - - - - - - - - -|                                  Last time ^
Comments