Misc Unsigned Bands - Vital Lusion - Eternal Chords & Tabs

 

Vital Lusion - Eternal Chords & Tabs

Misc Unsigned Bands Chords & Tabs

Version: 1 Type: Tab 0 ratings
1 star 2 stars 3 stars 4 stars 5 stars
comments

Vital Lusion - Eternal Tab

 Vital Lusion  (local band)
 Eternal

intro
 Riff 1

 *=pinch harmonic
   pm-   pm-   pm-      pm-    pm-   pm    pm-----------|          6x
 -------------------------------------------------------|
 -------------------------------------------------------|
 -------------------------------------------------------|
 ------------9*-----10*-----9*-----7*--------------7s9--|
 ---------------------------------------10*---9*---5s7--|
 --0-0-7-0-0---0-0------0-0---0-0-----0-----0-----------|


 Riff 2
   pm   pm       pm  pm                   4x
 -------------------------------------------------------------------------------|
 -------------------------------------------------------------------------------|
 -------------------------------------------------------------------------------|
 ---------9s7------5---5---------2----------------------------------------------|
 ---------7s5------3---2---0-2-3---3-2h3h3--------------------------------------|
------0-7-0--------0---0--------------------------------------------------------|
[ Tab from: http://www.guitartabs.cc/tabs/m/misc_unsigned_bands/vital_lusion_eternal_tab.html ]
 Riff 3
  pm-     pm-    pm-   pm-    pm----------------------------------------------|      2x
 -----------------------------------------------------------------------------|
 -----------------------------------------------------------------------------|
 -----------------------------------------------------------------------------|
 -------------2*-----2*----2*-----1*------------------------------------------|
 -----2*--0-3----0-1-----1------2---------------------------------------------|
 -0-1------------------0------0-----------------------------------------------|

 Riff 4
   pm-    pm-    pm-    pm-     pm---------------------------------------|                      2x
 ------------------------------------------------------------------------|
 ------------------------------------------------------------------------|
 ------------------------------------------------------------------------|
 ------------------------------------------------------------------------|
 ------2*-----2*-----2*-----2*----------------------5s4---5s4---0h4-4s5--|
 --0-1----0-3----0-1----0-3-----0-0-0-0-0-0-0-0-0-0-3s2-0-3s2-0-0h2-2s3--|

 then start over again, i don't have the leads yet but this is practicaly the
 whole song.

  if you like the song or have questions email me at c_perez_31@hotmail.com
Comments