Misc Unsigned Bands - Virisidle - Dead End Road Chords & Tabs

 

Virisidle - Dead End Road Chords & Tabs

Misc Unsigned Bands Chords & Tabs

Version: 1 Type: Tab 0 ratings
1 star 2 stars 3 stars 4 stars 5 stars
comments

Virisidle - Dead End Road Tab

   
this song really kicks some anus. I'm one-hundred percent sure these tabs are accuate
because i wrote them! duh!? so here you go.
enjoy or go deaf
tunning:drop d
(dadgbe)

Intro:
(palm mute)
e|----------------------------|-------------------------|
b|----------------------------|-------------------------|
g|----------------------------|-------------------------|
d|-0-0-0-2h0-0-4h0-0-0-0-3-5-3|0-0-0-3h0-0-5h0-0-0-0-3-2|
a|-0-0-0-2h0-0-4h0-0-0-0-3-5-3|0-0-0-3h0-0-5h0-0-0-0-3-2|
d|-0-0-0-2h0-0-4h0-0-0-0-3-5-3|0-0-0-3h0-0-5h0-0-0-0-3-2|

Interlude:
e|--------------------------|
b|--------------------------|
g|--------------------------|
d|-2-2-2-4-2-0-2-2-2-2-4-2-0|
a|-2-2-2-4-2-0-2-2-2-2-4-2-0|
d|-2-2-2-4-2-0-2-2-2-2-4-2-0|
[ Tab from: http://www.guitartabs.cc/tabs/m/misc_unsigned_bands/virisidle_dead_end_road_tab.html ]
verse:
e|-----------------------------------------------------------|
b|---------------------------/e/-----------------------------|
g|---------------------------/d/-----------------------------|
d|-2-2-2--2-3-2--2-2-2--2-3-2/i/--2-2-2-2-2-xxxxxx-2-2-3-3-2-|
a|-2-2-2--2-3-2--2-2-2--2-3-2/l/--2-2-2-2-2-xxxxxx-2-2-3-3-2-|
d|-2-2-2--2-3-2--2-2-2--2-3-2/s/--2-2-2-2-2-xxxxxx-2-2-3-3-2-|

chorus:
e|---------------------------|
b|---------------------------|
g|---------------------------|
d|-2-2-2-4-2-0-2-2-2-2-4-2-0-|
a|-2-2-2-4-2-0-2-2-2-2-4-2-0-|
d|-2-2-2-4-2-0-2-2-2-2-4-2-0-|

we havent really had time to go through a full solo for this song yet but as soon as we
do i will make and updated 2nd version with the solo tabed out fot you.
Comments