Misc Unsigned Bands - Victims To Opinion - Rebel Chords & Tabs

 

Victims To Opinion - Rebel Chords & Tabs

Misc Unsigned Bands Chords & Tabs

Version: 1 Type: Tab 0 ratings
1 star 2 stars 3 stars 4 stars 5 stars
comments

Victims To Opinion - Rebel Tab

Artist: Victims to Opinion
Song: Rebel

this is a local band from R.I. and we are going to go big pretty soon. We may be a
little young compared to most bands, but we have some great music. We have demo tapes
and cd's available, and they are available through our band site at www.victims-to-opinion.uni.cc

tuning for this song is {low to high) Eb~Ab~Db~Gb~Bb~Eb

1 |-------------------------------------------------|
2 |-------------------------------------------------|
3 |-------------------------------------------------|
4 |-------------------------------------------------| x 2
5 |-5--5--5--5--6--6--6--6--7--7--7--7--8--8--8--8--|
6 |-7--7--7--7--8--8--8--8--9--9--9--9--10-10-10-10-|

1 |------------------------------------------------------|
2 |------------------------------------------------------|
3 |------------------------------------------------------|
4 |------------------------------------------------------| x 2
5 |-5--5--5--5-5-6--6--6--6-6-7--7--7--7-7-8--8--8--8-8--|
6 |-7--7--7--7-7-8--8--8--8-8-9--9--9--9-9-10-10-10-1010-|
                      
                     *chorus*
1 |------------------------------------------|
2 |------------------------------------------|
3 |------------------------------------------|
4 |------------------------------------------|x 2
5 |-7--7--7--7--9--9--9--9--10---0-3-5-3-0---| 
6 |-5--5--5--5--7--7--7--7--8--4-----------4-|

1 |--------------------------------------------------|
2 |--------------------------------------------------|
3 |--------------------------------------------------|
4 |--------------------------------------------------|
5 |-7-7-7-7-7-7-7-7-9-9-9-9-9-9-9-9-10---0-3-5-3-0---|
6 |-5-5-5-5-5-5-5-5-7-7-7-7-7-7-7-7-8--4-----------4-|

                   *verse one*
1 |------------------------------------------------------------------|
2 |------------------------------------------------------------------|
3 |------------------------------------------------------------------|
4 |------------------------------------------------------------------|
5 |-7-7-7-7-7-7-7-7-9-9-9-9-9-9-9-9-10---0-3-5-3-0-----0-3-5-5-3-0---|
6 |-5-5-5-5-5-5-5-5-7-7-7-7-7-7-7-7-8--4-----------4-4-------------4-|
p.m...................................
1 |------------------------------------------------------------------|
2 |------------------------------------------------------------------|
3 |------------------------------------------------------------------|
4 |------------------------------------------------------------------|
5 |-77777777777777779999999999999999---0-3-5-5-3-0-----0-3-5-5-3-0---|
6 |-55555555555555557777777777777777-4-------------4-4-------------4-|
[ Tab from: http://www.guitartabs.cc/tabs/m/misc_unsigned_bands/victims_to_opinion_rebel_tab.html ]
               *part two of verse one*
1 |---------------------------------------------------------------|
2 |---------------------------------------------------------------|
3 |---------------------------------------------------------------|
4 |---------------------------------------------------------------|
5 |-2-2-2-2-3-3-3-3-4-4-4-4-5-5-5-5-6-6-6-6-7-7-8--8--9--9--10-10-|
6 |-4-4-4-4-5-5-5-5-6-6-6-6-7-7-7-7-8-8-8-8-9-9-10-10-11-11-12-12-|
p.m........................................
                      *bridge*
1 |----------------------------------|
2 |----------------------------------|
3 |----------------------------------|
4 |----------------------------------|
5 |---3---3---3---3---4---4---4p3--3-|
6 |-0---0---0---0---0---0---0----0---|

                  *before chorus*
1 |-------------------------|
2 |-------------------------|
3 |-------------------------|
4 |-------------------------|
5 |-7--7--7--7--7--8--8--8--|
6 |-9--9--9--9--9--10-10-10-|

1 |-------------------------------------------------|
2 |-------------------------------------------------|
3 |-------------------------------------------------|
4 |-11-11-11-11-11-11-11-11-11-11-11-11-11-11-11-11-|
5 |-10-10-10-10-10-10-10-10-10-10-10-10-10-10-10-10-|
6 |-12-12-12-12-12-12-12-12-12-12-12-12-12-12-12-12-|

1 |-------------------------------------------------|
2 |-------------------------------------------------|
3 |-----------------------------6-6-7---------------|
4 |-2-2-2-2-3-3-3-3-4-4-4-4-6-6-6-6-7---------------| x 2
5 |-2-2-2-2-3-3-3-3-4-4-4-4-6-6-8-8-9---0-3-5-3-0---|
6 |-4-4-4-4-5-5-5-5-6-6-6-6-8-8-------4-----------4-|
p.m................................

*lyrics*
 *chorus*

i'm just a teenager
typical teenager               X 2
rebelling

leave me alone
i can live by myself
i am burning inside
'cuz i feel like a living hell
i'm not crazy,
i'm just standing up for my rights
...and i'm putting up a fight!

         *chorus*

i'm just a teenager
typical teenager
rebelling                         X 4

i'm only thirteen
i am a young teen
but it is my day,
and i'll spend it MY WAY!

{guitar verse for eight beats}

i'm only thirteen
i am a young teen
but it is my day, 
and i'll spend it MY WAY!

{guitar verse for eight beats}

don't listen
selective hearing
ADD
ADHD
bi-polar
uppers
downers
depression
aggression!

{guitar verse for 16 beats}

don't listen
selective hearing
ADD
ADHD
bi-polar
uppers
downers
depression
aggression!

...now you know why we're so fucked up!

i'm just a teenager
typical teenager
rebelling                 X 4

{rebel! - extended}

i won't do it your way
i won't do it her way
i won't do what the cops say
i will do what i say, MY WAY!

{guitar verse for eight beats}

i won't do it your way
i won't do it her way
i won't do what the cops say
i will do what i say, MY WAY!

i'm just a teenager
typical teenager
rebelling! 
                  


~that's pretty much it, except for a solo that i'm still trying to figuring out how i did  it. 
~~~~~pEaCe~~~~~~
...and dont forget, VICTIMS TO OPINION~THE BAND OF THE FUTURE BIYATCH!
                     www.victims-to-opinion.uni.cc
Comments